Coheed And Cambria - In Keeping Secrets Of Silent Earth 3 Chords & Tabs

 

In Keeping Secrets Of Silent Earth 3 Chords & Tabs

Coheed And Cambria Chords & Tabs

Version: 1 Type: Bass Tab 0 ratings
1 star 2 stars 3 stars 4 stars 5 stars
comments

In Keeping Secrets Of Silent Earth 3 Bass Tab

   
-------------------------------------------------------------------------------
        IN KEEPING SECRETS OF SILENT EARTH: 3 - Coheed and Cambria
-------------------------------------------------------------------------------

Tabbed By : Tim	
e-mail: Brainyboy790@optonline.net

Tuning:Standard

Ok, so this song is the first in my effort to tab out all of the bass parts to "In
Keeping Secrets of SIlent Earth: 3" All of the bass tabs I found for this song were
in Drop D, which is totally wrong. So I decided to just go for it and figure it out
myself, which wasn't easy at all! The bassist in Co&Ca is simply unbelievable. With
that in mind I present to you... 
In Keeping Secrets of Silent Earth: 3

Dont' play during the first part of intro

Come in during second part of intro
G|-------------------------------------------------------------------->
D|-------------------------------------------------------------------->
A|---------------------11h12p11-9-11-7--------------------7p9h7-6p7h7->
E|-9999999999999999999-----------------000000000000000000------------->

>-----------------------------------------------------------|
>---------------------9p7-6h7p7-----------------------------| 
>-----9-9-----------------------9---------------------------|
>-777----7-7777777777--------------555555555555555555555555-|


Verse
G|---------------------------------|
D|--------6------------------------|
A|------7---7-6-6h7----------------|
E|-99-9-------------77-777-55-5-5/-|


Pre-chorus
G|--------------------------|  |--------------------------|
D|--------------------------|  |--------------------------|
A|-------------4---0-2-2222-|3x|--------------------------|
E|-22-22-22-22---4----------|  |-22-22-22-22-444444555555-|


Chorus
G|-------------------------------------------------------------------->
D|-------------------------------------------------------------------->
A|---------------------11h12p11-9-11-7--------------------7p9h7-6p7h7->
E|-9999999999999999999-----------------000000000000000000------------->
[ Tab from: http://www.guitartabs.cc/tabs/c/coheed_and_cambria/in_keeping_secrets_of_silent_earth_3_btab.html ]
>-----------------------------------------------------------|
>---------------------9p7-6h7p7-----------------------------| 
>-----9-9-----------------------9---------------------------|
>-777----7-7777777777--------------555555555555555555555555-|


G|----------------------------------------------------->
D|----------------------------------------------------->
A|----------------------------------------------------->
E|-99999999999999999999-10-12-000000000000000000000000->

>--------------------------------------------------|
>--------------------------------------------------|
>--------------------------------------------------|
>-777777777777777777777777-55555555555555555555555-|

Verse

Pre-chorus

Chorus

Brdige Part I ("For you I'd do anything just to make you happy")
G|---------------------------------------------------------------->
D|------------------2~-----------------------2~--------2--------2->
A|--------------2-3-----------333--------2-3-------2-3------2-3--->
E|-00---00---00--------555555-----222-00--------00-------00------->

>--------------------------------------------------------------------|
>---------------------2~------------------2~---------2-3-5-3-2---2---|
>-------333-------2-3-------2-3-2~----2-3------2-3-5-----------5---2-|
>-555555---222-00--------00--------00--------5-----------------------|


G|-----------------|
D|-----------------|
A|-----------------|
E|-5~--3~--2~--0~--|
   I  Love You Too

Part II ("The navigator, the pilot, her favorite")
G|----14~---------|
D|----12~---------|
A|----------------|
E|-0~-----8888888-|

Part III ("Will, do the children really understand the things you did to them?")
G|-------------|
D|-------------|
A|----3~----5~-|
E|-1~----3~----|

Part IV ("In the seventh turning hour when the victim's shadow falls") 
G|----------------------------------|
D|----------------------------------|
A|---------------------------3~--2~-|
E|-5~-----1~-----5~-----1~----------|

During the intro in the end (Sounds weird, I know)
G|-------------------------|
D|-------------------------|
A|-------------------------|
E|-55555555555555555555555-|

Chorus again

End on
G|----|
D|----|
A|----|
E|-9~-|

And BAM. You're done.

| /  slide up
| \  slide down
| h  hammer-on
| p  pull-off
| ~  vibrato
| +  harmonic
| x  Mute note
Comments