Coheed And Cambria - Faint Of Hearts Chords & Tabs

 

Faint Of Hearts Chords & Tabs

Coheed And Cambria Chords & Tabs

Version: 1 Type: Tab 0 ratings
1 star 2 stars 3 stars 4 stars 5 stars
comments

Faint Of Hearts Tab

   
-------------------------------------------------------------------------------
	         Faint of Hearts Acoustic - Coheed and Cambria
tabbed by:jordan weissman
Email:jord3nw@aol.com

Tuning:standard (eadgbe)

Intro/Verse
e|---------------------------------------------------------------------------|
B|---------------------------------------------------------------------------|
G|9-0-9--------------------------------------5-0-5-----4~--------------------|
D|9-0-9--\5-5-5-4p0-(tap guitar)-0h4h7-------5-0-5--\5---4p0-----------------|
A|7-0-7--------------------------------5-5p0-3-0-3---------------------------|
E|---------------------------------------------------------------------------|

Endings to Above Riff
(First Time do first one, then second time do second one, after alternate  first and third)
e|------------------------|----|----------------------------------------------|
B|------------------------|----|----------------------------------------------|
G|------------------------|-5~-|-5-0-5-0--------------------------------------|
D|------------------------|-5~-|-5-0-5-0--------------------------------------|
A|-----------10-10-\14----|-3~-|-3-0-3-0--------------------------------------|
E|0-0-\12-12-----------12-|----|----------------------------------------------|
  ^really really fast

Chorus
did somebody take your tongue...
e|--------------------------------------------------------------------------|
B|--------------------------------------------------------------------------|
G|--------------------------------5-5-5-5-5-5-5-5-5-5-5-5-5-5-5-5-----------|
D|5-5-5-5-5-5-5--2-2-2-2-2-2-2-2--5-5-5-5-5-5-5-5-5-5-5-5-5-5-5-5-----------|
A|5-5-5-5-5-5-5--2-2-2-2-2-2-2-2--3-3-3-3-3-3-3-3-3-3-3-3-3-3-3-3-----------|
E|3-3-3-3-3-3-3--0-0-0-0-0-0-0-0--------------------------------------------|

So I bid to you, goodnight...
e|--------------------------------------------------------------------------|
B|--------------------------------------------------------------------------|
G|---------------------------------9-9-9-9-9-9-9--7-7-7-7-7-7-7-7--5~-------|
D|7-7-7-7-7-7-7-7-7-7-7-7-7-7-7-7--9-9-9-9-9-9-9--7-7-7-7-7-7-7-7--5~-------|
A|7-7-7-7-7-7-7-7-7-7-7-7-7-7-7-7--7-7-7-7-7-7-7--5-5-5-5-5-5-5-5--3~-------|
E|5-5-5-5-5-5-5-5-5-5-5-5-5-5-5-5-------------------------------------------|

Intro/Verse
Chorus

First Bridge
e|--------------------------------------------------------------------------|
B|--------------------------------------------------------------------------|
G|----0h2-0---------0h2-0------5-5-5-5-5-5-9-9-7-7--------------------------|
D|5-5-------4p0-5-5-------4p0--5-5-5-5-5-5-9-9-7-7--------------------------|
A|5-5-----------5-5------------3-3-3-3-3-3-7-7-5-5--------------------------|
E|3-3-----------3-3---------------------------------------------------------|
[ Tab from: http://www.guitartabs.cc/tabs/c/coheed_and_cambria/faint_of_hearts_tab.html ]
Second Bridge
you were so well behaved...
e|--------------------------------------------------------------------------|
B|--------------------------------------------------------------------------|
G|--------------------------------------------------------------------------|
D|7----------------9----------------10--------------------------------------|
A|7-(x16palm-muted)9-(x16palm-muted)10-(x16-palm muted)---------------------|
E|5----------------7-----------------8--------------------------------------|

Bridge
e|--------------------------------------------------------------------------|
B|--------------------------------------------------------------------------|
G|---5-4---5-4--------------------------------------------5-4---5-4---------|
D|2~-5-4-5-5-4-5--2-222-222-222-222-222-222-222-2-2-2-2-2-5-4-5-5-4-5-------|
A|2~-3-2-5-3-2-5--2-222-222-222-222-222-222-222-0-0-0-0-0-3-2-5-3-2-5-------|
E|0~-----3-----3--0-000-000-000-000-000-000-000---------------3-----3-------|
                  (fast palm muting up and down)
e|--------------------------------------------------------------------------|
B|--------------------------------------------------------------------------|
G|--------------------------------------------------------------------------|
D|2-2------------2-2------------2-2------------2-2-2------------------------|
A|2-2-5-3-2-0----2-2-5-3-2-0----2-2-5-3-2-0----2-2-2------------------------|
E|0-0---------3--0-0---------3--0-0---------3--0-0-0------------------------|

Solo (close as I can get, i think its pretty close), anyway it works
e|--------------------------------------------------------------------------|
B|------10------------------------------------------------------------------|
G|--12----11-12-------------------------------------------------------------|
D|10--10-------10-9-12\14-12-10-9--10-9---9-10-9--------9-------------------|
A|--------------------------------------12------12-10-12-12-10--------------|
E|--------------------------------------------------------------------------|

Last Bridge
e|--------------------------------------------------------------------------|
B|--------------------------------------------------------------------------|
G|7-7-7-7-7-7-7-7-7-7-7-7-7-7-7-7--9-9-9-9-9-9-9-9--5-5-5-5-5-5-5-5---------|
D|7-7-7-7-7-7-7-7-7-7-7-7-7-7-7-7--9-9-9-9-9-9-9-9--5-5-5-5-5-5-5-5---------|
A|5-5-5-5-5-5-5-5-5-5-5-5-5-5-5-5--7-7-7-7-7-7-7-7--3-3-3-3-3-3-3-3---------|
E|--------------------------------------------------------------------------|

Outro
e|---------------------------------------------------------------------------|
B|---------------------------------------------------------------------------|
G|-------5------------------5------------------5-------------9------7-----5~-|
D|5~--2~-5(X16)-5-----2-----5(X16)-5-----2-----3(X16)-7------9(X16)-7(X16)5~-|
A|5~--2~-3------5(X8)-2(X8)-3------5(X8)-2(X8)-3------7(X16)-7------5-----3~-|
E|3~--0~--------3-----0------------3-----0------------5----------------------|


| /  slide up
| \  slide down
| h  hammer-on
| p  pull-off
| ~  vibrato
| +  harmonic
| x  Mute note
========================================================================
Comments