Coheed And Cambria - Devil In Jersey City Chords & Tabs

 

Devil In Jersey City Chords & Tabs

Coheed And Cambria Chords & Tabs

Version: 3 Type: Tab 0 ratings
1 star 2 stars 3 stars 4 stars 5 stars
comments

Devil In Jersey City Tab

Coheed & Cambria:The Second Stage Turbine Blade
Devil In Jersey City
RG-Rhythm Guitar(Claudio Sanchez)
LG-Lead Guitar(Travis Steever)
Tabbed By: JEREMY CAHILL

VERSE:DISTORSTION-LG
e|---------------------------------|
B|---------------------------------|
G|---------------------------------|
D|9-99999999-----------------------|
A|9-99999999---12-12121212121212---|
E|7-77777777---10-10101010101010---| 
pm  ........      . . . . . . .     

VERSE-LG 
e|-------------14----------------15-------17-------|
B|----17-15-------15----17-15-------15-------15----|
G|-16-------16-------16-------16-------16-------16-|
D|-------------------------------------------------|
A|-------------------------------------------------|
E|-------------------------------------------------|
   ^(play Lead Guitar's Verse Four times)^

VERSE
DISTORSTION(played twice)G1
e|---------------------------------------------------|
B|---------------------------------------------------|
G|---------------------------------------------------|
D|9-99999999-----------------------5-555555555555555-|
A|9-99999999---12-12121212121212---5-555555555555555-|
E|7-77777777---10-10101010101010---3-333333333333333-| 
pm  ........      . . . . . . .      ...............
[ Tab from: http://www.guitartabs.cc/tabs/c/coheed_and_cambria/devil_in_jersey_city_tab_ver_3.html ]
DISTORSTION-G1
e|---------------------------------------------------|
B|---------------------------------------------------|
G|---------------------------------------------------|
D|9-99999999-----------------------5-555555555555555-|
A|9-99999999---12-12121212121212---5-555555555555555-|
E|7-77777777---10-10101010101010---3-333333333333333-|
pm                                   ...............

DISTORSTION-G1
e|---------------------------------------------------|
B|---------------------------------------------------|
G|---------------------------------------------------|
D|9-99999999-----------------------5-555555555555555-|
A|9-99999999---12-12121212121212---5-555555555555555-|
E|7-77777777---10-10101010101010---3-333333333333333-|
pm  ........      . . . . . . .      ...............

PRE-CHORUS(RG and LG Together)
e|----------------------------|
B|----------------------------|
G|----------------------------|
D|-7/9-9-----5---7-5-4--------|
A|-7/9-9-X8--5-5-------7-5-X4-|
E|-5/7-7-----3----------------|
CHORUS-RG
e|------------------------|
B|------------------------|
G|------------------------|
D|-77--55-99-77---4-55----|
A|-77--55-99-77---4-55----|
E|-55--33-77-55---2-33----|

CHORUS-LG
e|------------------------------------|
B|-----------7-7---------------5-5----|
G|-0h7p5-4p0-7-7----0h7p5-4p0-7-7----|
D|---------------X2----------------X2-|
A|------------------------------------|
E|------------------------------------|

RG-BRIGE
e|-------------------------------------------------------|
B|-------------------------------------------------------|
G|-------------------------------------------------------|
D|--0-7-5-4-------0-7-5-4-------0-7-5-4-------0-7-5-4----|
A|5---------7-5-5---------7-5-5---------7-5-5---------7-5|
E|3-------------3-------------3-------------3------------|
Comments