Coheed And Cambria - Delirium Trigger Chords & Tabs

 

Delirium Trigger Chords & Tabs

Coheed And Cambria Chords & Tabs

Version: 1 Type: Tab 0 ratings
1 star 2 stars 3 stars 4 stars 5 stars
comments

Delirium Trigger Tab

Drop D Tuning

E|--10---------------------------------
B|----10---11-10---------------10-11---
G|------10-------10-12-9-10------------
D|--------------------------12---------  4x
A|-------------------------------------
D|-------------------------------------


At the end of the 4th time play this
E|-----------------------
B|-----------------------
G|--5-5--5-5---3---------
D|--5-5--5-5---3---------
A|--3-3--3-3---1---------
D|-----------------------

These are just the cords figure out the strumming pattern.

E|------------------------------------------------
B|------------------------------------------------
G|--10----9-----7----5-----3----------------------
D|------------------------------------------------
A|--8-----8-----5----7-----5----------------------
D|------------------------------------------------


Play muted stings 4x each.
E|----x----x----x----x----x----x---------------------------
B|----x----x----x----x----x----x---------------------------
G|--7-x--7-x--3-x--3-x--7-x--7-x--5-5-5-5-5--3-3-3-3-3-----
D|--7-x--7-x--3-x--3-x--7-x--7-x--5-5-5-5-5--3-3-3-3-3-----   4x
A|--5-x--5-x--1-x--1-x--5-x--5-x--3-3-3-3-3--1-1-1-1-1-----
D|----x----x----x----x----x----x---------------------------


E|------------------------------
B|------------------------------
G|------------------------------
D|--------------------2-3-5-----
A|----1-0---3---1-3-5-----------
D|--0-----0---0-----------------


These are just the cords figure out the strumming pattern.
[ Tab from: http://www.guitartabs.cc/tabs/c/coheed_and_cambria/delirium_trigger_tab.html ]
E|------------------------------------------------
B|------------------------------------------------
G|--10----9-----7----5-----3----------------------
D|------------------------------------------------    2x
A|--8-----8-----5----7-----5----------------------
D|------------------------------------------------


then hold this for the hello.... hello part

E|--------
B|--------
G|--10----
D|--------
A|--8-----
D|--------



These are just the cords figure out the strumming pattern.

E|------------------------------------------------
B|------------------------------------------------
G|--10----9-----7----5-----3----------------------
D|------------------------------------------------  1x
A|--8-----8-----5----7-----5----------------------
D|------------------------------------------------

hold this for the next part

E|------
B|------
G|------
D|--0---
A|--0---
D|--0---


figure out the strumming for the cords right after the bar.
E|------------------------|----------------
B|------------------------|----------------
G|------------------------|--10------------
D|--10-10-10-10--8-8-8-8--|--8-----0-------  4x
A|--10-10-10-10--8-8-8-8--|--8-----0-------
D|--10-10-10-10--8-8-8-8--|--8-----0-------

Im not sure of what to play during the bridge

Fast part before the chorus
E|-------------------------------------
B|-------------------------------------
G|-----------------------9-10-12-------
D|--0-8-7-0-10-0-8-10-12---------------    7x
A|-------------------------------------
D|-------------------------------------


figure out the strumming for the cords after the bar.

E|------------------------|----------------
B|------------------------|----------------
G|------------------------|--10------------
D|--10-10-10-10--8-8-8-8--|--8-----0-------  4x
A|--10-10-10-10--8-8-8-8--|--8-----0-------
D|--10-10-10-10--8-8-8-8--|--8-----0-------


End on

E|----------------------------
B|----------------------------
G|----------------------------
D|--10-10-10-10--8-8-8-8------
A|--10-10-10-10--8-8-8-8------
D|--10-10-10-10--8-8-8-8------
Comments