Coheed And Cambria - Blood Red Summer Chords & Tabs

 

Blood Red Summer Chords & Tabs

Coheed And Cambria Chords & Tabs

Version: 3 Type: Bass Tab 0 ratings
1 star 2 stars 3 stars 4 stars 5 stars
comments

Blood Red Summer Bass Tab

Standard tuning

Blood Red Summer
Coheed and Cambria
In Kepping Secrets of Silent Earth 3
Bass Tab


G|----------------------------------------------------------------------|\
D|----------------------------------------------------------------------| \
A|---6777777777777777767777777777777777---------------------------------| /3 Times 
E|-------------------------------------455555555555555554555555555555555|/

G|----------------------------------------------|
D|----------------------------------------------|
A|---6777777777777777777777777777777777-77665544|
E|----------------------------------------------|

G|---------------------------------------------------------------------------|\
D|--------------------------------------------99--99--99-------99--99--99--99| \
A|---------------------------------------66-77--77--77---7-6-77--77--77--77--| /2 Times
E|---7777777777777777-5555555555-557799--------------------------------------|/


G|----------------------------------------------------------------------|\
D|----------------------------------------------------------------------| \
A|---6777777777777777767777777777777777---------------------------------| /3 Times 
E|-------------------------------------455555555555555554555555555555555|/
[ Tab from: http://www.guitartabs.cc/tabs/c/coheed_and_cambria/blood_red_summer_btab_ver_3.html ]
G|---------------------------------------------------------------------------|\
D|--------------------------------------------99--99--99-------99--99--99--99| \
A|---------------------------------------66-77--77--77---7-6-77--77--77--77--| /2 Times
E|---7777777777777777-5555555555-557799--------------------------------------|/

G|----------------------------------------------------------------------|\
D|----------------------------------------------------------------------| \
A|---4444444444444444-2222222222222222-00000000000000000000000000000000-| /2 Times
E|----------------------------------------------------------------------|/

G|----------------------------------------------------------------------|\
D|----------------------------------------------------------------------| \
A|---6777777777777777767777777777777777---------------------------------| /3 Times 
E|-------------------------------------455555555555555554555555555555555|/

G|----------------------------------------------|
D|----------------------------------------------|
A|---6777777777777777777777777777777777-77665544|
E|----------------------------------------------|

END

G|----------------------------------------------------------------------|\
D|----------------------------------------------------------------------| \
A|---4444444444444444-2222222222222222-00000000000000000000000000000000-| /4Times
E|----------------------------------------------------------------------|/



Comments