Coheed And Cambria - Blood Red Summer Chords & Tabs

 

Blood Red Summer Chords & Tabs

Coheed And Cambria Chords & Tabs

Version: 1 Type: Bass Tab 0 ratings
1 star 2 stars 3 stars 4 stars 5 stars
comments

Blood Red Summer Bass Tab

   
Blood Red Summer - Coheed And Cambria

Standard Tuning

Intro (0:00)

  e e e e e e e e e e e e e e e e
G|-------------------------------|
D|-------------------------------|
A|7-7-7-7-7-7-7-7-7-7-7-7-7-7-7-6| 
E|-------------------------------| x2

Verse (0:06)

  e e e e e e e e e e e e e e e e
G|-------------------------------|
D|-------------------------------|
A|7-7-7-7-7-7-7-7-7-7-7-7-7-7-7-6| 
E|-------------------------------| x13 

Pre-Chorus (0:48)

  e e e e e e e e e e e e e e e e
G|-------------------------------|
D|-------------------------------|
A|7-7-7-7-7-7-7-7-7-7-6-6-5-5-4-4|
E|-------------------------------|

Chorus (0:50)

  e e e e e e e e e e e e e e e e  e e e e e e e e e e e e e e e e
G|--------------------------------|--------------------------------|
D|--------------------------------|--------------------------------|
A|--------------------------------|--------------------------------|
e|6-6-6-6-6-6-6-6-6-6-6-6-6-6-6-6-|4-4-4-4-4-4-4-4-4-4-4-4-4-4-4-4-| x4

Verse (1:15)

  e e e e e e e e e e e e e e e e
G|-------------------------------|
D|-------------------------------|
A|7-7-7-7-7-7-7-7-7-7-7-7-7-7-7-6|
E|-------------------------------| x13

Chorus (1:52)
[ Tab from: http://www.guitartabs.cc/tabs/c/coheed_and_cambria/blood_red_summer_btab.html ]
  e e e e e e e e e e e e e e e e  e e e e e e e e e e e e e e e e
G|--------------------------------|--------------------------------|
D|--------------------------------|--------------------------------|
A|--------------------------------|--------------------------------|
e|6-6-6-6-6-6-6-6-6-6-6-6-6-6-6-6-|4-4-4-4-4-4-4-4-4-4-4-4-4-4-4-4-| x4

Bridge (2:17) -x2- (repeat the whole bridge)

  e e e e e e e e       e e e e e e e e      e e e e e e e e
G|----------------|----|---------------|----|---------------|----|
D|----------------|----|---------------|----|---------------|----|
A|9-9-9-9-9-9-9-9-|----|7-7-7-7-7-7-7-7|----|5-5-5-5-5-5-5-5|----|
E|----------------|-x2-|---------------|-x2-|---------------|-x2-|

Outro pt. I (2:43)

  e e e e e e e e e e e e e e e e
G|-------------------------------|
D|-------------------------------|
A|7-7-7-7-7-7-7-7-7-7-7-7-7-7-7-6|
E|-------------------------------| x8

Bridge (3:07)

  e e e e e e e e e e e e e e e e  e e e e e e e e e e e e e e e e
G|--------------------------------|-------------------------------|
D|--------------------------------|-------------------------------|
A|7-7-7-7-7-7-7-7-7-7-7-7-7-7-7-6-|7-7-7-7-7-7-7-7-7-7-6-6-5-5-4-4|
E|--------------------------------|-------------------------------|

Outro pt. II (3:14) -x3-


  e e e e e e e e       e e e e e e e e      e e e e e e e e
G|----------------|----|---------------|----|---------------|----|
D|----------------|----|---------------|----|---------------|----|
A|9-9-9-9-9-9-9-9-|----|7-7-7-7-7-7-7-7|----|5-5-5-5-5-5-5-5|----|
E|----------------|-x2-|---------------|-x2-|---------------|-x2-|

Outro pt. III (0:14)

-Just electric guitar, about until 0:08-



Very easy song, so won't take long to learn...

Any questions, comments, or corrections...e-mail me at wj_bq2004@yahoo.com
Comments