Coheed And Cambria - Apollo I The Writing Writer Chords & Tabs

 

Apollo I The Writing Writer Chords & Tabs

Coheed And Cambria Chords & Tabs

Version: 2 Type: Bass Tab 0 ratings
1 star 2 stars 3 stars 4 stars 5 stars
comments

Apollo I The Writing Writer Bass Tab

   
Apollo I: The Writing Writer
Coheed And Cambria
Good Apollo, I'm Burning Star IV, Volume I: From Fear Through The Eyes of Madness

Tabbed By : fender4string
Tuning: Half-Step down (Eb Ab Db Gb)

This one is a lot of fun to play so enjoy it everyone.
I tried to get allof Mic's fills as dead on as possible as the other tab that's on here, 
pretty good,
missed a lot of little stuff that I tried to catch.  If you see anything wrong please 
a comment and please remember to rate!

Thanks a lot and have fun!

Lead In (Strike the notes aggressively)
G|---------------|
D|-2-0-----------|
A|-----4---------|
E|-------2-------|


Verse 1
G|-----------------------------------------------------------------|
D|---------------------------4-------------------------------------|
A|-----------------------------------------------------------------|
E|-2-3--2---3---2---3---2-0------2-3---2---3---2---3---2-0---------|

G|-----------------------------------------------2-----------------|
D|--------4---4----------4---4---------------------4-2-5-----------|
A|-2----2---2---2-2----2---2---2-2---4-5-4-2-------------5-4-------|
E|-------------------------------------------2-2-------------------|

G|-----------------------------------------------------------------|
D|--------------------------------4--------------------------------|
A|-----------------------------------------------------------------|
E|-2---2-3---2---3---2---3---2-0----2-3---2---3---2---3---2-0------|

G|-----------------------------------------------------------------|
D|-------4---4---------4-5-4-2-0-------4---4------4-7-5-4----------|
A|-2---2---2---2-2---2-----------2---2---2---2-2----------7-5------|
E|-----------------------------------------------------------------|

G|-----------------------------------------------------------------|
D|--------------------------------4--------------------------------|
A|-----------------------------------------------------------------|
E|-2---2-3---2---3---2---3---2-0----2-3---2---3---2---3---2-0------|

G|-------------------------------------------2-4--4----------------|
D|--------4---4---------4---4---------4---4---------7-4-5----------|
A|-2----2---2---2-2---2---2---2-2---2---2-----------------7-5------|
E|-----------------------------------------------------------------|


Pre-Chorus
G|-----------------------------------------------------------------|
D|------------------2-0-------------4---5---4---2--2---2-4-2-------|
A|-----5--------0-0-----4---0-2---2---2---2---0---0--0-------------|
E|-3-3---0-2-3------------3----------------------------------------|

G|-----------------------------------------------------------------|
D|------------------2-0-------------4---5---4------2-4\------------|
A|-----5--------0-0-----4---0-2---2---2---2---0000-----------------|
E|-3-3---0-2-3------------3----------------------------------------|


Chorus
G|------------------------------------------------|
D|------------------------------------------------|
A|--------------------0-2-222202-5--4--5--4-------| 2x
E|--3-333333-0-0002-3-----------------------5-----|

G|-------------------------------------------------------------|
D|--------------------------------4----------------------------|
A|-----5--------------2-------2-2---2-0-2-4--5--4--5--4--------|
E|-3-3---3-2-3-5--0-0---002-3--------------------------5-------|

G|-------------------------------------------------------------|
D|--------------------------------4----------------------------|
A|-----5--------------2-------2-2---2-0-2-4--5--4--5-----------|
E|-3-3---3-2-3-5--0-0---002-3-------------------------5--3-----|


Verse
G|--2-----------------------------------------------------------------------|
D|----5-4-2-0-----------------------------------4---------------------------|
A|------------4-------------------------------------------------------------|
E|--------------2---2-3--2---3---2---3---2-0------2-3---2---3---2---3---2-0-|

G|-------------------------------------------------------------------|
D|--------4---4---------4-5-4-2-----------4---4-----4-7-5-4----------|
A|--2---2---2---2-2---2---------5---2---2---2--2-2----------7-5------|
E|-------------------------------------------------------------------|
[ Tab from: http://www.guitartabs.cc/tabs/c/coheed_and_cambria/apollo_i_the_writing_writer_btab_ver_2.html ]
G|-----------------------------------------------------------------------|
D|-------4---4-------------4---4-------------4---4-----------------------|
A|-2---2---2---2-2---2---2---2---2-2---2---2---2---2-2--4-5-4-0---0------|
E|--------------------------------------------------------------2--------|


Chorus (No variations as far as I can hear)


Bridge
G|--------------------------------------------------------------------------|
D|--7-5-4-------------------------------------4-----------------------------|
A|--------7-5-4-------------------------------------------------------------|
E|--------------2---2-3--2---3---2---3---2-0------2-3---2---3---2---3---2-0-|

G|-----------------------------------------------------------------------|
D|-------4---4--------4-5-4-2-0-------4--4-------------4-----------------|
A|-2---2---2--2-2---2-----------2---2---2--2-2---2---2---2-4-5-2---------|
E|-----------------------------------------------------------------------|

G|-----------------------------------------------------------------------|
D|--------------------------------4--------------------------------------|
A|-----------------------------------------------------------------------|
E|-2---2-3---2---3---2---3---2-0----2-3---2---3---2---3---2-0------------|

G|---------------------------------------------------4-------------------|
D|-------4---4-------------4---4-------------4---4-------7-5-4-----------|
A|-2---2---2---2-2---2---2---2---2-2---2---2---2---2-----------7-5-4-----|
E|-----------------------------------------------------------------------|

G|-----------------------------------------------------------------------|
D|------------------2-0-------------4---5---4---2--2---2-4-2-------------|
A|-----5--------0-0-----4---0-2---2---2---2---0---0--0-------------------|
E|-3-3---3-2-3------------3----------------------------------------------|

G|-----------------------------------------------------------------------|
D|------------------2-0-------------4---5---4---2--2---2-4-2-------------|
A|-----5--------0-0-----4---0-2---2---2---2---0---0--0-------------------|
E|-3-3---3-2-3------------3----------------------------------------------|

G|----------------------------------------------------|
D|----------------------------------------------------|
A|----------------------------------------------------|
E|--3---2-3---2-3---2-3-5---7\--5-77-5-77-5-7-5-------|

G|---------------------------------------------------------|
D|---------------------------------------------------------|
A|---------------------------------------------------------|
E|--3---2-3---2-3---2-3-5---7\--5-77-5-77-5-77-5------8\---|


Chorus/Outro (Lots of variations here)
G|------------------------------------------------|
D|------------------------------------------------|
A|--------------------0-2-222202-5--4--5--4-------| 2x
E|--3-333333-0-0002-3-----------------------5-----|

G|------------------------------------------------------------|
D|-------------------------------4-----4----------------------|
A|------------------------0-2--2---2-2--2--5-4-5-4------------|
E|--3-333-5-3-2-0-000-2-3--------------------------5----------|

G|------------------------------------------------------------|
D|-------------------------------4----------------------------|
A|-----5------------------0-2--2---22-0-2--5-4-5-4------------|
E|-3-3--3-5-3-2-0-000-2-3--------------------------5----------|

G|------------------------------------------------------------|
D|--------------------------------4---4-----------------------|
A|-----5---5---------------0-2--2---2--2-4--5-4-5-4-----------|
E|-3-3---3--3-5-0--000-2-3--------------------------5---------|

G|------------------------------------------------------------|
D|------------------------------------4--4--------------------|
A|-----5---------------2-------0-2--2--2--2-4--5-4-5-4--------|
E|-3-3---3-5-3-2--0--0---0-2-3-------------------------5------|

G|------------------------------------------------------------|
D|---------------------------------4--------------------------|
A|-----5---5---------2------0-2--2---2--5-4-----5-4-5---------|
E|-3-3---3--3-2-0--0--0-2-3-----------------5---------5--3----|


| /  slide up
| \  slide down
| h  hammer-on
| p  pull-off
| ~  vibrato
| +  harmonic
| x  Mute note
=================================================================
Comments