Coheed And Cambria - Always And Never Chords & Tabs

 

Always And Never Chords & Tabs

Coheed And Cambria Chords & Tabs

Version: 1 Type: Tab 0 ratings
1 star 2 stars 3 stars 4 stars 5 stars
comments

Always And Never Tab

   
This is the seconds track off the new album. This is the best way I can figure out how
to play it.

Tuning: Db,Ab,Db,Gb,Bb,eb
Fingerpicked
In 3/4 or 6/8. My measures are in 6/8.
Intro
eb|---------------------------|---------------------------|
Bb|---------------------------|---------------------------|
Gb|---------------------------|---------------------------|
Db|---------------7-4---------|---------------7-4---------|
Ab|-----------5-------5-------|-----------5-------5-------|
Db|0-h4-h5-h7---0---------0---|0-h4-h5-h7---0---------0---|

eb|--------------------------|--------------------------|
Bb|--------------------------|--------------------------|
Gb|-------2-p0---0-----------|-------2-p0---------------|
Db|--2-h4------4-------------|--2-h4------4-------------|
Ab|0-------------------------|0-------------------------|
Db|--------------0---0---0---|--------------0---0---0---|

eb|------------------------|------------------------|
Bb|------------------------|------------------------|
Gb|4---------4-4---2---0---|4---------4-4---2---0---|
Db|----0-------------------|----0-------------------|
Ab|------0-----------------|------0-----------------|
Db|5-------5---5---4---0---|5-------5---5---4---0---|

eb|------------------------|------------------------|
Bb|------------------------|------------------------|
Gb|2---------2-2---------2-|2---------2-2---------0-|
Db|----0-----------0-------|----0-----------0-------|
Ab|------0-----------0-----|------0-----------0-----|
Db|0-------0---0-------0---|0-------0---0-------0---|


Part I
eb|---------------------------|---------------------------|
Bb|---------------------------|---------------------------|
Gb|---------------------------|---------------------------|
Db|---------------7-4---------|---------------7-4---------|
Ab|-----------5-------5-------|-----------5-------5-------|
Db|0-h4-h5-h7---0---------0---|0-h4-h5-h7---0---------0---|
If beauty  sits...

eb|--------------------------|--------------------------|
Bb|--------------------------|--------------------------|
Gb|-------2-p0---0-----------|-------2-p0---------------|
Db|--2-h4------4-------------|--2-h4------4-------------|
Ab|0-------------------------|0-------------------------|
Db|--------------0---0---0---|--------------0---0---0---|


eb|------------------------|------------------------|
Bb|------------------------|------------------------|
Gb|4---------4-4---2---0---|4---------4-4---2---0---|
Db|----0-------------------|----0-------------------|
Ab|------0-----------------|------0-----------------|
Db|5-------5---5---4---0---|5-------5---5---4---0---|


eb|------------------------|------------------------|
Bb|------------------------|------------------------|
Gb|2---------2-2---------2-|2---------2-2---------0-|
Db|----0-----------0-------|----0-----------0-------|
Ab|------0-----------0-----|------0-----------0-----|
Db|0-------0---0-------0---|0-------0---0-------0---|


eb|---------------------------|---------------------------|
Bb|---------------------------|---------------------------|
Gb|---------------------------|---------------------------|
Db|---------------7-4---------|---------------7-4---------|
Ab|-----------5-------5-------|-----------5-------5-------|
Db|0-h4-h5-h7---0---------0---|0-h4-h5-h7---0---------0---|
 Behind your...

eb|--------------------------|--------------------------|
Bb|--------------------------|--------------------------|
Gb|-------2-p0---0-----------|-------2-p0---------------|
Db|--2-h4------4-------------|--2-h4------4-------------|
Ab|0-------------------------|0-------------------------|
Db|--------------0---0---0---|--------------0---0---0---|


eb|------------------------|------------------------|
Bb|------------------------|------------------------|
Gb|4---------4-4---2---0---|4---------4-4---2---0---|
Db|----0-------------------|----0-------------------|
Ab|------0-----------------|------0-----------------|
Db|5-------5---5---4---0---|5-------5---5---4---0---|
If timing...
[ Tab from: http://www.guitartabs.cc/tabs/c/coheed_and_cambria/always_and_never_tab.html ]
eb|------------------------|------------------------|
Bb|------------------------|------------------------|
Gb|2---------2-2---------2-|2---------2-2---------0-|
Db|----0-----------0-------|----0-----------0-------|
Ab|------0-----------0-----|------0-----------0-----|
Db|0-------0---0-------0---|0-------0---0-------0---|


Part II- I'm not sure where on the fretboard this part is played. I play the little
line on the g string, but it's easily transferable.
eb|------------------------|------------------------|
Bb|------------------------|------------------------|
Gb|12------12--11------11--|9-------14--11----------|
Db|----0---0-------0---0---|----0-----------0---0---|
Ab|0-----0---0-0-----0---0-|0-----0-0---0-----0---0-|
Db|------------------------|------------------------|
   Stay    w/  me      and  fall    a - sleep

eb|------------------------|------------------------|
Bb|------------------------|------------------------|
Gb|12------12--11------11--|9-------14--11----------|
Db|----0---0-------0---0---|----0-----------0---0---|
Ab|0-----0---0-0-----0---0-|0-----0-0---0-----0---0-|
Db|------------------------|------------------------|
   Pray    to  God     for  no      bad dreams

eb|------------------------|------------------------|
Bb|------------------------|------------------------|
Gb|12------12--11------11--|9-------14--11----------|
Db|----0---0-------0---0---|----0-----------0---0---|
Ab|0-----0---0-0-----0---0-|0-----0-0---0-----0---0-|
Db|------------------------|------------------------|
   Stay    w/  me      and  fall    a - sleep

eb|------------------------|------------------------|
Bb|------------------------|------------------------|
Gb|12------12--11------11--|9-------14--11------0---|
Db|----0---0-------0---0---|----0-----------0-------|
Ab|0-----0---0-0-----0---0-|0-----0-0---0-----0---0-|
Db|------------------------|------------------------|
   Pray    to  God     for  no      bad dreams

Part III
eb|------------------------|------------------------|
Bb|------------------------|------------------------|
Gb|4---------4-4---------4-|4---------4-4---------4-|
Db|----0-----------0-------|----0-----------0-------|
Ab|------0-----------0-----|------0-----------0-----|
Db|5-------5---5-------5---|5-------5---5-------5---|
   Here...

eb|------------------------|------------------------|
Bb|------------------------|------------------------|
Gb|4---------4-4---------4-|4---------4-4---2---0---|
Db|----0-----------0-------|----0-------------------|
Ab|------0-----------0-----|------0-----------------|
Db|5-------5---5-------5---|5-------5---5---4---0---|
   Here        my           dear...

eb|------------------------|------------------------|
Bb|------------------------|------------------------|
Gb|2---------2-2---------2-|2---------2-2---------0-|
Db|----0-----------0-------|----0-----------0-------|
Ab|------0-----------0-----|------0-----------0-----|
Db|0-------0---0-------0---|0-------0---0-------0---|
   you...

eb|------------------------|------------------------|
Bb|------------------------|------------------------|
Gb|2---------2-2---------2-|2---------2-2---------0-|
Db|----0-----------0-------|----0-----------0-------|
Ab|------0-----------0-----|------0-----------0-----|
Db|0-------0---0-------0---|0-------0---0-------0---|

eb|------------------------|------------------------|
Bb|------------------------|------------------------|
Gb|4---------4-4---------4-|4---------4-4---------4-|
Db|----0-----------0-------|----0-----------0-------|
Ab|------0-----------0-----|------0-----------0-----|
Db|5-------5---5-------5---|5-------5---5-------5---|
So Here...

eb|------------------------|------------------------|
Bb|------------------------|------------------------|
Gb|4---------4-4---------4-|4---------4-4---2---0---|
Db|----0-----------0-------|----0-------------------|
Ab|------0-----------0-----|------0-----------------|
Db|5-------5---5-------5---|5-------5---5---4---0---|
   Here        my           dear...     

eb|------------------------|------------------------|
Bb|------------------------|------------------------|
Gb|2---------2-2---------2-|2---------2-2---------2-|
Db|----0-----------0-------|----0-----------0-------|
Ab|------0-----------0-----|------0-----------0-----|
Db|0-------0---0-------0---|0-------0---0-------0---|
   you...

eb|------------------------|--------------------------|
Bb|------------------------|--------------------------|
Gb|2-----------------------|--------------------------|
Db|0-----------------------|--------------------------|
Ab|0-----------------------|--------------------------|
Db|0-----------------------|--------------------------|
   you...
Comments