Codeseven - Southie Chords & Tabs

 

Southie Chords & Tabs

Codeseven Chords & Tabs

Version: 2 Type: Tab 0 ratings
1 star 2 stars 3 stars 4 stars 5 stars
comments

Southie Tab

This is one of my favorite songs from their hardcore days, and one of their most
popular. Woo. This took a while to completely figure out, but it rocks. Send all
feedback to DreamWthnADreamX@aol.com, or click "correct tab".

This is the main riff.
E------------------
B------------------
G------------------
D--8-8-8-5--5-5-6--
A--8-8-8-5--5-5-6--
D--8-8-8-5--5-5-6--

Verse
E-----------------------------------
B-----------------------------------
G------------------------------<5>--
D--8-8-8-5--5-5-6-------------------
A--8-8-8-5--5-5-6-------------------
D--8-8-8-5--5-5-6--<5>-<5>-<5>------

E---------------------------------------
B---------------------------------------
G---------------------------------------
D--8-8-8-5--5-5-6-----------------------
A--8-8-8-5--5-5-6--<5>--<5>-<5>-<5><5>--
D--8-8-8-5--5-5-6-----------------------

Breakdown
E---------------------------------
B------3--------3--------3--------
G--------3----3--3~---------3-2~--
D--1~----------------0~-----------
A--1~----------------0~-----------
D--1~-------1--------0~-----------

Then after that, guitar one continues playing that while guitar two plays this...
E-------------------------------------
B-------------------------------------
G-------------------------------------
D-------------------------------------
A--1111111111111111-0000000000000000--
D--1111111111111111-0000000000000000--
[ Tab from: http://www.guitartabs.cc/tabs/c/codeseven/southie_tab_ver_2.html ]
E----------------------
B----------------------
G----------------------
D--3-3--3-3--3-3--3-3--
A--3-3--3-3--3-3--3-3--
D--3-3--3-3--3-3--3-3--

E-------------------------------------------
B-----3-------3-----------------------------
G-------3---3--3----------------------------
D--1~------------1/3--3-3--3-3--3-3--3-3-5--
A--1~-----1------1/3--3-3--3-3--3-3--3-3-5--
D--1~-----1------1/3--3-3--3-3--3-3--3-3-5--
End on the 5th fret and let the note ring.

Palm mute
E-----------------------------------
B-----------------------------------
G-----------------------------------
D--5-5-5-3-3-3-5-5-5-6-6-6-5-5-3-3--
A-----------------------------------
D-----------------------------------

Harmonics
E---------------------------------------
B---------------------------------------
G---------------------------------------
D-----------------------<5>-------------
A----------------------------------<5>--
D--<5>-<5><5>-<5><5><5>-----<5><5>------

Then
E-----------------------------------
B-----------------------------------
G-----------------------------------
D--5-5-5-3-3-3-5-5-5-6-6-6-5-5-3-3--
A--5-5-5-3-3-3-5-5-5-6-6-6-5-5-3-3--
D--5-5-5-3-3-3-5-5-5-6-6-6-5-5-3-3--

Again harmonics
E-------------------------------------
B-------------------------------------
G---------<5>-------------------------
D---------------------<5>-------------
A--------------------------------<5>--
D--<5>-<5>---<5><5><5>----<5><5>------

Next song out will probably be "Hymn", and then I'm tabbing out "Back And Fourth".
Comments