Codeseven - Southie Chords & Tabs

 

Southie Chords & Tabs

Codeseven Chords & Tabs

Version: 1 Type: Tab 0 ratings
1 star 2 stars 3 stars 4 stars 5 stars
comments

Southie Tab

This song is one of the prog rock stuff off the new CD, "The Rescue", just like
my tab for "Danger"...I figured out most of this CD, and most of "A Sense Of
Coalition", and I'll be posting more of the hardcore stuff out. I've already
tabbed like 4 or 5 other songs I'm just going to post today or whenever. As
always, send comments to DreamWthnADreamX@aol.com, or click "correct tab". Hope
you enjoy, I figured all these out by myself, starting from scratch, in just a
couple of days, so I'm proud.

Intro, clean
E-----------------------------------------------
B-----------------------------------------------
G----------------------10----12----13----12-----
D--7/10-10-10-10-10-10----10----10----10----10--
A-----------------------------------------------
E-----------------------------------------------

E-------------------------------------
B-------------------------------------
G----------------10---12---13---12----
D--7/9-9-9-9-9-9----9----9----9----9--
A-------------------------------------
E-------------------------------------

The verse is hard to hear, but this is the last part of it, before the chorus.
Guitar one plays this...
E----------------
B----------------
G----------------
D--10\2-2--2--7--
A----------------
E----------------
[ Tab from: http://www.guitartabs.cc/tabs/c/codeseven/southie_tab.html ]
While guitar one plays that, guitar two overlaps it with this. It's a simple
change, only one note...but you can tell something's different in the part.
E---------------
B---------------
G---------------
D--10\2-2--3-7--
A---------------
E---------------

Chorus. Same as the intro lead, but this is overlapped.
E------------------------------------
B------13-------------13--17---------
G--16-----16-12~--16----------7-9-7--
D------------------------------------
A------------------------------------
E------------------------------------

Main bass line for this part...
G------------------------------------
D------------------------------------
A------------------------------------
E--12--12--12--12\8-8--8--8--8\7-7~--

E---------------------------------0~--
B---------------------------------0~--
G---------------------------------0~--
D--7--7~---3--3~---7--7~---3--3~--3~--
A--7--7~---3--3~---7--7~---3--3~--3~--
E--5--5~---1--1~---5--5~---1--1~--1~--

E--------------------------------------------------
B--------------------------------------------------
G--------------------------------------------------
D--7--7~---3--3~---7--7~---3--3~--6-6-6-6-6-6-6-6--
A--7--7~---3--3~---7--7~---3--3~--6-6-6-6-6-6-6-6--
E--5--5~---1--1~---5--5~---1--1~--4-4-4-4-4-4-4-4--

Outro
E-----5~--7~------5~--7~--
B--5~----------3~---------
G-------------------------
D-------------------------
A-------------------------
E-------------------------

E-----5~------5~-------------
B--5~------3~-----3-0-3------
G----------------------------
D-----------------------2~~--
A----------------------------
E----------------------------

Either "Hymn", "Misled", or "What Makes Them Tick" is next,
for you hardcore fans.
Comments