Code Name Clide - Poop Chords & Tabs

 

Poop Chords & Tabs

Code Name Clide Chords & Tabs

Version: 1 Type: Tab 0 ratings
1 star 2 stars 3 stars 4 stars 5 stars
comments

Poop Tab

Code name:
Clide.
Cover band.
Poop.

Riff 1:

E-----6-----6-----6-----7-----7-----7-----6-----6-----6-|
B---8-----8-----8-----9-----9-----9-----8-----8-----8---|
G-7-----7-----7-----8-----8-----8-----8-----8-----8-----|
D-------------------------------------------------------|
A-------------------------------------------------------|
E-------------------------------------------------------|x5

Riff 2:
[ Tab from: http://www.guitartabs.cc/tabs/c/code_name_clide/poop_tab.html ]
E-6-6-6-6-6-6--7-7-7-7-7-7--6-6-6-6-6-6-----------------|
B-8-8-8-8-8-8--9-9-9-9-9-9--8-8-8-8-8-8-----------------|
G-7-7-7-7-7-7--8-8-8-8-8-8--8-8-8-8-8-8-----------------|
D-------------------------------------------------------|
A-------------------------------------------------------|
E-------------------------------------------------------|x2

Play riff 1 then 2 then 1 the beat is just 1,2,3 just like in the ABC 123 song, but no pause
inbetwean them.
Riff 2 is just fast play anything you want to on riff 2, but make it on the first 3 strings.

Comments