Cocteau Twins - Rilkean Heart Chords & Tabs

 

Rilkean Heart Chords & Tabs

Cocteau Twins Chords & Tabs

Version: 1 Type: Tab 0 ratings
1 star 2 stars 3 stars 4 stars 5 stars
comments

Rilkean Heart Tab

   
Cocteau Twins - Rilkean Heart

From the album:    Milk & Kisses 
Words/Music: Cocteau Twins

Tabs:    Marcus H. Pedersen
Added To UG By Mikhailo

Great song..........

Intro: (E - A - F#m - A)

e ---0--------------4--2--0--0---------------0--------
B ---0------------------------2-----------2------2----
G ---1-----(2--4)------------2-------2------------2---
D ---2------------------------2---2-------------------
A ---2------------------------0-----------------------
E ---0------------------------------------------------

e --------------------2--------------------------0------
B -----------------2------2-------------------2-----2---
G -------------2--------------2-----------2-----------2-
D ---------4----------------------------2---------------
A ------------------------------------0-----------------
E ---0--2-----------------------------------------------



Verse: (same as above)

E - A - F#m - A
[ Tab from: http://www.guitartabs.cc/tabs/c/cocteau_twins/rilkean_heart_tab.html ]
(Just before the chorus play a B chord instead of the last A chord


Chorus:

C#m - F#m - A - E

C#m - F#m - B

Another guitar plays this along with the chords:

e -9--11--12--11--9------9----9--11--12--11--9-------------
B -9-------------------12-------9--------------------12--9-
G -9-----------------------------9-------------------------
D ---------------------------------------------------------
A ---------------------------------------------------------
E ---------------------------------------------------------


And on the B chord it plays:

e ------7--------7------7-----7-------7------7-
B --------7--------7-------------7-------7-----
G -9--------9--------9----8--------8------8----
D ---------------------------------------------
A ---------------------------------------------
E ---------------------------------------------
 

Bridge:

A#m - A - B - E

A#m - A - B - B
Comments