Coal Chamber - Row Boat Chords & Tabs

 

Row Boat Chords & Tabs

Coal Chamber Chords & Tabs

Version: 3 Type: Tab 0 ratings
1 star 2 stars 3 stars 4 stars 5 stars
comments

Row Boat Tab

Artist - Coal Chamber
Song - Row Boat
tabbed by : MeegzStu_ES

BEADGB tunning

Into (Think is right)
|------------------------------------------------------------|
|------------------------------------------------------------| 
|------------------------------------------------------------|
|------------------------------------------------------------|
|-----5----5----5----5----5--------6----6----6----6----6-----|
|--10---10---10---10---10---10--11---11---11---11---11---11--|

Verse
[ Tab from: http://www.guitartabs.cc/tabs/c/coal_chamber/row_boat_tab_ver_3.html ]
|------------------------------------------------|
|------------------------------------------------| 
|------------------------------------------------|
|-3--4-----------3-4-----------3--4--------------|
|-3--4---Pause---3-2---Pause---3--4--------------|
|-1--2-----------1-2-----------1--2--------------|


Chorus
|------------------------------------------------|
|------------------------------------------------| 
|------------------------------------------------|
|-3--4---------------------3--4------------------|
|-3--4---------------------3--4------------------|
|-1--2--2-1-0-2-1-0-2-1----1--2--2-1-0-2-1-0-2-1-|


Interlude

|--------6-8-9----------| 
|-5-6-8-----------------|
|-----------------------|
|-----------------------|
|-----------------------|
|-----------------------|
(not the number of times to pick each string, start palm muted
then gradually lift hand)


Last Pre-chorus
|------------------------|
|------------------------| 
|------------------------|
|-3-3-3-4----------------|
|-3-3-3-4----1-3-3-4-3-4-|
|-1-1-1-2-4--------------|
Comments