Coal Chamber - Row Boat Chords & Tabs

 

Row Boat Chords & Tabs

Coal Chamber Chords & Tabs

Version: 2 Type: Tab 0 ratings
1 star 2 stars 3 stars 4 stars 5 stars
comments

Row Boat Tab

Verse
-------------------------------------
-------------------------------------
-------------------------------------
-------------------------------------
--5-7-5-7----------------------------
--3-5-3-5----------------------------
CHorus:
-------------------------------------
-------------------------------------
-------------------------------------
-------------------------------------
--5-5-5-5-5-7-7-7-7-7--4-3-2---------
--3-3-3-3-3-5-5-5-5-5--4-3-2-(x3)----
Bridge:
-----------------------------------
--777-888-777-9999------------------
------------------------------------
------------------------------------
------------------------------------
------------------------------------
CONT Bridge:
--------------------------------
--------------------------------
--------------------------------
--------------------------------
--5-5-5-5-5-7-7-7-7-7--9-9-11---
--3-3-3-3-3-5-5-5-5-5--7-7-9-(X3)last part 9and 11
[ Tab from: http://www.guitartabs.cc/tabs/c/coal_chamber/row_boat_tab_ver_2.html ]
Comments