Coal Chamber - Notion Chords & Tabs

 

Notion Chords & Tabs

Coal Chamber Chords & Tabs

Version: 2 Type: Tab 0 ratings
1 star 2 stars 3 stars 4 stars 5 stars
comments

Notion Tab

   
        GUITAR TABLATURE ONLINE

          URL: www.angelfire.com/bc/tablature
	EMAIL: tablature@canada.com

 ----------------------------------------------------------------------------------------------

	     SONG: Notion
	     BAND: Coal Chamber
	    ALBUM: Chamber Music
   TRANSCRIBED BY: Paul De Jaegher
	     DATE: October 9, 1999

 ----------------------------------------------------------------------------------------------

	TUNING: tune your guitar down as follows (B,E,A,D,G,B)

     INTRO:

     About eight seconds of weird harmonic noise on 'B' string

     Then play this eight times

    B|-------------------------|
    G|-------------------------|
    D|-------------------------|
    A|-------------------------|
    E|--5/6-6-6----5--6-6---5--|
    B|--3/4-4-4----3--4-4---3--|

     VERSE:

     Play this four times
[ Tab from: http://www.guitartabs.cc/tabs/c/coal_chamber/notion_tab_ver_2.html ]
    B|-----------------|
    G|-----------------|
    D|------6-------7--|
    A|--5-------5------|
    E|------4-------5--|
    B|--3-------3------|

     Then play this four times

    B|--5--5--5--5--5--5--5--5--|
    G|--------------------------|
    D|--------------------------|
    A|--------------------------|
    E|--------------------------|
    B|--------------------------|

     CHORUS:

    B|---------------------------------------------------------|
    G|--5--5--5--5---------------------------------------------|
    D|--5--5--5--5--5--5--5--5---------------------------------|
    A|--3--3--3--3--5--5--5--5---------------------------------|
    E|--------------3--3--3--3---------------------------------|
    B|--------------------------2-2-1-1-2-2-1-1-2-2-1-1-2-2-0--|
                                pm.........................

     FILL 1: (2:04)

     Strum back and forth between these two chords

    B|-------------|
    G|--10------5--|
    D|--10------5--|
    A|---8------3--|
    E|---8------3--|
    B|-------------|

     INTERLUDE:

     Same as intro

     OUTRO:

     Same as fill 1


Comments