Coal Chamber - Loco Chords & Tabs

 

Loco Chords & Tabs

Coal Chamber Chords & Tabs

Version: 6 Type: Tab 0 ratings
1 star 2 stars 3 stars 4 stars 5 stars
comments

Loco Tab

Tuning: Standart E
intro:

e---------------------------
b---------------------------
g--4444p34p34p34444344343434   x4
d---------------------------
a---------------------------
e---------------------------

then:

e---------------------------
b---------------------------
g---------------------------
d---------------------------
a--0------------------------
e--2------------------------

versus:

e-------------------------------------
b-------------------------------------
g------------------------------------- x8
d-------------------------------------
a-0h20h20h20h232--------0h20h20h20h287
e-0h20h20h20h232--------0h20h20h20h287

interlude 1(Dez starts to sing)
e-------------------------------------
b-------------------------------------
g------------------------------------- x4
d-------------------------------------
a-0h20h20h20h232--------0h20h20h20h287
e-------------------------------------
[ Tab from: http://www.guitartabs.cc/tabs/c/coal_chamber/loco_tab_ver_6.html ]
chorus: (all this with P.M)

e-------------------------------------
b-------------------------------------
g-------------------------------------
d-------------------------------------
a-4----------3------------2-----------
e-2(x20)-----1(x20)-------0-----------

versus x4

interlude 1(x4)

chorus 

then interlude 2:

e------------------------------------
b------------------------------------
g------------------------------------
d------------------------------------
a------------------------------------
e-1-2-1-2-1-2-1-(x4)-----------------

and the song ends with interlude 2(x1)

song structure:
intro (x4)
versus (x8)
interlude 1 (x4)
chorus
versus (x4)
interlude (x4)
chorus
interlude 2 (x4)
intro (x2)
versus (x4)
interlude 1(x4)
chorus
interlude 2(x1)

That's it. Enjoy. I'm pretty sure is 100% correct, but i'm not sure about the effects,
I think heavy distortion with a little delay and for the rithyms, hear the song.
Comments