Coal Chamber - Loco Chords & Tabs

 

Loco Chords & Tabs

Coal Chamber Chords & Tabs

Version: 3 Type: Tab 0 ratings
1 star 2 stars 3 stars 4 stars 5 stars
comments

Loco Tab

#----------------------------------PLEASE NOTE--------------------------------#
#This file is the author's own work and represents their interpretation of the#
#song. You may only use this file for private study, scholarship, or research.#
#-----------------------------------------------------------------------------#
From: James Reilly 
To: guitar@olga.net
Subject: Tab:"LOCO"by"COAL CHAMBER"

LOCO BY: COAL CHAMBER
TAB  BY: BRIAN REILLY

e-------------------
b--0-0-0-0-0-0-0-0--
g--3-3-3-3-3-3-3-3--
d--(----------------
a-------------------
e-------------------
B-------------------
Hold bend                    \
                              alternate riffs
Then play with out bend      /


                               
e---------                 e-----------------------------        
b---------                 b-----------------------------
g---------                 g-----------------------------
d---------                 d-----------------------------
a--2------                 a-----------------------------
e--2------                 e---4---4---4---4-5-4---------
B--0------                 B-0-2-0-2-0-2-0-2-3-2---------
Let cord ring           /   p.m-------------
               Alternate  4x
                        \  e-----------------------------        
                           b-----------------------------
                           g-----------------------------
                           d-----------------------------
                           a-----------------------------
                           e---4---4---4---4-7-5---------
                           B-0-2-0-2-0-2-0-2-5-3---------
                           p.m-------------


(choirs)
e-------------------------------------------------------------
b-------------------------------------------------------------
g-------------------------------------------------------------
d-------------------------------------------------------------
a-------------------------------------------------------------
e-4-4---4-4-4-4---4-4-4-4---4-4-4-4---4-4-3-3---3-3-3-3-------
B-2-2---2-2-2-2---2-2-2-2---2-2-2-2---2-2-1-1---1-1-1-1-------
  LOCO      LOCO      LOCO      LOCO      LOCO      LOCO
[ Tab from: http://www.guitartabs.cc/tabs/c/coal_chamber/loco_tab_ver_3.html ]
e-------------------------------------------------------------
b-------------------------------------------------------------
g-------------------------------------------------------------
d-------------------------------------------------------------
a-------------------------------------------------------------
e-3-3-3-3---3-3-3-3---3-3-2-----------------------------------
B-1-1-1-1---1-1-1-1---1-1-0------------HTTP/1.0 400 Cache Detected Error
Server: squid/1.1.10-nf/2.0.4
Date: Thu, 03 Aug 2000 16:28:52 GMT
Expires: Thu, 03 Aug 2000 16:30:52 GMT
Last-Modified: Thu, 03 Aug 2000 16:28:52 GMT
Content-Type: text/html
Content-Length: 1640


   
      CleanWeb: Site Blocked
      
   

   >">'>">'>



Blocked Site


CleanWeb

You tried to access http://mud.leaseyourmind.com/gtab/c/coal_chamber/loco.tab. CleanWeb will not allow you to visit this site because it encountered a blocking code type 423 (Retrieval Aborted). This means that access to http://mud.leaseyourmind.com/gtab/c/coal_chamber/loco.tab has been blocked because the document contained inappropriate words. If you believe this is in error, please let us know.

close
G-PASS
Comments