Coal Chamber - Fiend Chords & Tabs

 

Fiend Chords & Tabs

Coal Chamber Chords & Tabs

Version: 4 Type: Tab 0 ratings
1 star 2 stars 3 stars 4 stars 5 stars
comments

Fiend Tab

Artist - Coal Chamber
Song - Fiend
tabbed by : MeegzStu_ES

AEADGB tunning

Into

|------------------------------------------------|
|------------------------------------------------| 
|------------------------------------------------|
|------------------------------------------------|
|------------------------------------------------|
|-3--0--0--3--0--0--3--0--3-0-0--3--0--0--6--5---|


|------------------------------------------------|
|------------------------------------------------| 
|------------------------------------------------|
|------------------------------------------------|
|------------------------------------------------|
|-3--0--0--3--0--0--3--0--3-0-0--3--0--0--6--6---|

Verse
|------------------------------------------------|
|------------------------------------------------| 
|------------------------------------------------|
|------------------------------------------------|
|------------------------------------------------|
|-3--0--0--3--0--0--3--0--3--0--0--3--0--0--3--0-|

Chorus
[ Tab from: http://www.guitartabs.cc/tabs/c/coal_chamber/fiend_tab_ver_4.html ]
|----------------------------------------------|
|----------------------------------------------| 
|----------------------------------------------|
|-3--0--0--3--0--0--3--0--3-0-0--3--0--0--6--5-|
|-3--0--0--3--0--0--3--0--3-0-0--3--0--0--6--5-|
|-3--0--0--3--0--0--3--0--3-0-0--3--0--0--6--5-|

|----------------------------------------------|
|----------------------------------------------| 
|----------------------------------------------|
|-3--0--0--3--0--0--3--0--3-0-0--3--0--0--6--6-|
|-3--0--0--3--0--0--3--0--3-0-0--3--0--0--6--6-|
|-3--0--0--3--0--0--3--0--3-0-0--3--0--0--6--6-|

2nd and 3rd Pre-chorus
|------------------|
|------------------| 
|------------------|
|-3--3--2--3--3--2-|
|-3--3--2--3--3--2-|
|-3--3--2--3--3--2-|
 PM ---------------

Interlude
|-------------------------------------------|
|-------------------------------------------| 
|-------------------------------------------|
|-11--10--10--11--10--10--5--4--4--5--4--4--|
|-11--10--10--11--10--10--5--4--4--5--4--4--|
|-11--10--10--11--10--10--5--4--4--5--4--4--|

Comments