Coal Chamber - Feed My Dreams Chords & Tabs

 

Feed My Dreams Chords & Tabs

Coal Chamber Chords & Tabs

Version: 1 Type: Tab 0 ratings
1 star 2 stars 3 stars 4 stars 5 stars
comments

Feed My Dreams Tab

   
        WWW.METALTABS.COM

          URL: www.metaltabs.com
	EMAIL: webmaster@metaltabs.com

 ----------------------------------------------------------------------------------------------

	     SONG: Feed My Dreams
	     BAND: Coal Chamber
	    ALBUM: Chamber Music
   TRANSCRIBED BY: Josh Brown (joshbrown311@hotmail.com)
	     DATE: Unknown

 ----------------------------------------------------------------------------------------------

	TUNING: tune your guitar down as follows (A,E,A,D,G,B)


     RIFF 1:

    |------------------|
    |------------------|
    |------------------|
    |------------------|
    |------------------|
    |-6--7--7/10--9--6-|

     RIFF 2:
[ Tab from: http://www.guitartabs.cc/tabs/c/coal_chamber/feed_my_dreams_tab.html ]
    |-----------------|
    |-----------------|
    |-----------------|
    |-2--3--3/6--5--2-|
    |-2--3--3/6--5--2-|
    |-2--3--3/6--5--2-|

     RIFF 3:

    |------------------------------------------------------------------------------|
    |------------------------------------------------------------------------------|
    |-9-9-9-9-9-9---------9-9-9-9-9-9---------9-9-9-9-9-9-----9/10-----------------| 
    |------------------------------------------------------------------------------|
    |-------------7-7-7-7-------------7-7-7-7-------------7-7------7--7--7--7--7-7-|
    |------------------------------------------------------------------------------|

     RIFF 4:

    |--------------|
    |--------------|
    |--------------|
    |-2--3--2--2-2-|
    |-2--3--2--2-2-|
    |-2--3--2--2-2-|

Comments