Coal Chamber - Feed My Dreams Chords & Tabs

 

Feed My Dreams Chords & Tabs

Coal Chamber Chords & Tabs

Version: 2 Type: Bass Tab 0 ratings
1 star 2 stars 3 stars 4 stars 5 stars
comments

Feed My Dreams Bass Tab

Feed My Dreams - Coal Chamber
tabbed by: ryan b

tune to C#

***rest for effect-dominated guitar (0:00 - 0:07)

Riff A: (4 times)
A-------------------------
C#--0-1-4-3-1--0-1-4-3-0--

Riff B: (4 times)
A-----------------------------
C#--7-8-11-10-8--7-8-11-10-7--

Riff A: (4 times)
Riff B: (4 times)
Riff A: (4 times)
[ Tab from: http://www.guitartabs.cc/tabs/c/coal_chamber/feed_my_dreams_btab_ver_2.html ]
Riff C: (4 times)
A-------------------------------------
C#--7-88-11-10-10-8--7-88-11-10-10-7--

Riff D: (twice)
A---------------------------------------------------
C#--0-1-0-0-0---0-1-0-0-0---0-1-0-0-0--0-1-0-1-0-1--

Riff A: (4 times)
Riff B: (4 times)
Riff A: (4 times)
Riff D: (twice) - Ending on C# (open C# string)

***rest for "I'm not asleep..." (2:48 - 2:55)***

Comments