Coal Chamber - El Cu Cuy Chords & Tabs

 

El Cu Cuy Chords & Tabs

Coal Chamber Chords & Tabs

Version: 3 Type: Tab 0 ratings
1 star 2 stars 3 stars 4 stars 5 stars
comments

El Cu Cuy Tab

   
Ok people firstly this is my first tab and secondly i know Meegs doesnt use this tuning
but its the same as drop A just moved down a few frets. Ive only included each part once
i.e the intro, verse, chorus and bridge as they are simply repeated throughout the song.
Listen to the song for exact timing and rhythm. Please rate this tab :)  

Tabbed by:GaNdY
Band:Coal Chamber
Album:Chamber Music,The Best of Coal Chamber 
Tuning (B,F#,B,E,G#,C#)

Intro: 
C#|------------------------------------------------------|
G#|------------------------------------------------------|
E |------------------------------------------------------|
B |------------------------------------------------------|
F#|------------------------------------------------------|
B |--22202202--02--023-----22202202--02--320-------------|


Verse:     
C#|------------------------------------------------------|
G#|------------------------------------------------------|
E |------------------------------------------------------|
B |--22202202--02--023-----22202202--02--320-------------|
F#|--22202202--02--023-----22202202--02--320-------------|
B |--22202202--02--023-----22202202--02--320-------------|

[ Tab from: http://www.guitartabs.cc/tabs/c/coal_chamber/el_cu_cuy_tab_ver_3.html ]
Verse:
C#|------------------------------------------------------|
G#|------------------------------------------------------|
E |------------------------------------------------------|
B |------------------------------------------------------|
F#|------------------------------------------------------|
B |--22202202--02--023-----22202202--02--320-------------|


Chorus: 'Kill the man become the monster...'
C#|------------------------------------------------------|
G#|------------------------------------------------------|
E |------------------------------------------------------|
B |--6-5-5---6--5-5--5--5--6-6---------------------------|
F#|--6-5-5---6--5-5--5--5--6-6---------------------------|
B |--6-5-5---6--5-5--5--5--6-6---------------------------|


Bridge:
C#|------------------------------------------------------|
G#|------------------------------------------------------|
E |------------------------------------------------------|
B |--8-7---10-8---8-7---5-3------------------------------|
F#|--6-5---8--6---6-5---3-1------------------------------|
B |------------------------------------------------------|

Alternativly you may wish to use octaves...

Bridge:
C#|------------------------------------------------------|
G#|------------------------------------------------------|
E |--8-7---10-8---8-7--5-3-------------------------------|
B |------------------------------------------------------|
F#|--6-5---8--6---6-5--3-1-------------------------------|
B |------------------------------------------------------|



Comments