Coal Chamber - Beckoned Chords & Tabs

 

Beckoned Chords & Tabs

Coal Chamber Chords & Tabs

Version: 2 Type: Tab 0 ratings
1 star 2 stars 3 stars 4 stars 5 stars
comments

Beckoned Tab

Coal Chamber
Beckoned
Dark Days
Drop A or Drop D... either works

/   slide
p  pulloff
^   upstroke

intro x8
1]---------------------[
2]---------------------[
3]---------------------[
4]-8---8-7-8p7----[
5]---0----------------[
6]---------------------[
[ Tab from: http://www.guitartabs.cc/tabs/c/coal_chamber/beckoned_tab_ver_2.html ]
chorus x2
1]---------------------------------------------------------------------------------------------
2]---------------------------------------------------------------------------------------------
3]---------------------------------------------------------------------------------------------
4]-5--5-5-5-5-5----1--1-1-1-1-1----0--0-0-0-0-0----------------------------------
5]-5--5-5-5-5-5----1--1-1-1-1-1----0--0-0-0-0-0----------------------------------
6]-5--5-5-5-5-5----1--1-1-1-1-1----0--0-0-0-0-0----0-0-0-0-1-1-1-1-3-3---
                     ^                          ^                         ^
verse x2
1]-21/1--21/1--21/1--21/11---
2]------------------------------------
3]------------------------------------
4]------------------------------------
5]------------------------------------
6]------------------------------------
(treat those as really long slides from the bottom of the fret board to the top of
it.  The last one only go half way.)

chorus x2
verse x2

1st Brdge
1]---------------------------------------------------------------------------------------
2]---------------------------------------------------------------------------------------
3]---------------------------------------------------------------------------------------
4]-1/2-2/3-3/4-4/5-5/6-6/7-7/8-8/9-9/10-10/11-11/12-12/13-13/14---
5]-1/2-2/3-3/4-4/5-5/6-6/7-7/8-8/9-9/10-10/11-11/12-12/13-13/14---
6]-1/2-2/3-3/4-4/5-5/6-6/7-7/8-8/9-9/10-10/11-11/12-12/13-13/14---

2nd Bridge
1]--------------------------------------------------
2]--------------------------------------------------
3]--------------------------------------------------
4]--------------------------------------------------
5]-1-1--2-2--1-1--2-2--1-1--1/2-2--2-2---
6]-1-1--2-2--1-1--2-2--1-1--1/2-2--2-2---
(it gets weird here and I'm lazy so...)

3rd Bridge x2
1]---------------------------------------------
2]---------------------------------------------
3]---------------------------------------------
4]-0----1----2-------------------------------
5]-0----1----2-------------------------------
6]-0----1----2----1-1-1-1-1-1-1-1------

chorus x4
3rd Bridge
Comments