Cmx - Lepattajat Chords & Tabs

 

Lepattajat Chords & Tabs

Cmx Chords & Tabs

Version: 1 Type: Bass Tab 0 ratings
1 star 2 stars 3 stars 4 stars 5 stars
comments

Lepattajat Bass Tab

   
Tabbed by plikk

alku
G----------------------------------------------|
D----------------------------------------------|
A----------------------------------------------|
E-5-5------------------------------------------|


G |------------------------------------------------|
D |------------------------------------------------|
A |------------------------------------------------|
E |5-5--3-5--3--5-5--3-5--3--5-5--3-5--3--5-5--3-5-|
  toistuu


verse:

G |------------------------------------------------|
D |------------------------------------------------|
A |------------------------------------------------|
E |5-5-3-5-3--5-5-3-5--3--5-5--3-5--3--5-5-3-5-6-0-|


bridge1 (ensimmäisellä kerralla):

G |------------------------------------------------------------------|
D |------------------------------------------------------------------|
A |------------------------------------------------------------------|
E |1-1-1-1-1-1-1-1-0-0-0-0-0-0-0-0-5-5-5-5-5-5-5-5-3-3-3-3-3-3-3-3---|

[ Tab from: http://www.guitartabs.cc/tabs/c/cmx/lepattajat_btab.html ]
G |--------------------------------|
D |--------------------------------|
A |--------------------------------|
E |1-1-1-1-1-1-1-1-0-0-0-0-0-0-0-0-|

bridge2 (toisella kerralla):

G |-----------------------------------------------|
D |-----------------------------------------------|
A |-----------------------------------------------|
E |1-1-1-1------0-0-0-0------5-5-5-5------3-3-3-3-|

G |--------------------------|
D |--------------------------|
A |--------------------------|
E |1-1-1-1------0-0-0-0------|

bridge3 (kolmannella kerralla):


G |----------------------------------------------|
D |----------------------------------------------|
A |----------------------------------------------|
E |1-------0-------5-------3-------1------0------|

 "kertsi":


G |-----------------------------|
D |-----------------------------|
A |-----------------------------|
E |5-5-5-3-3-3-2-2-2-1--1--1----|

väliriffi:

G |------------------|
D |------------------|
A |------------------|
E |5--3--4--2--3--1--|

loppuriffi:


G |------------------------------|
D |------------------------------|
A |------------------------------|
E |3-5--3-5--3-5--3-5--3-5--3-5--|
Comments