Cmx - Ei Yksikaan Chords & Tabs

 

Ei Yksikaan Chords & Tabs

Cmx Chords & Tabs

Version: 1 Type: Tab 0 ratings
1 star 2 stars 3 stars 4 stars 5 stars
comments

Ei Yksikaan Tab

   
CMX- EI YKSIKÄÄN

Tabbed Py Plikk

Viritys: E-A-D-G-B-E

I
||---------------------------------------------||
||---------------------------------------------||
||---------------------------------------------|| 
||----9--9---9--9---9---9--9---9---9--9---9---9|| 
||--7--7--7------7---7------7---7------7---7---|| 
||0--------5--8---8---8--5---5---7--0---0---0--|| 

Mistä ne lauloivat... / Hymysi murtuivat...


II
C5 E5 F5 H5 (demp.)

Yön aavat notkuu märkää... / Silmän veitsi terävämpi...


III
E     A        C     B
 Kuka ihmisten kuningas...
E A C B [*erinäisiä kertoja vapaata G-kieltä, kuuntele!]
E A C B
E A C B [*]
[ Tab from: http://www.guitartabs.cc/tabs/c/cmx/ei_yksikaan_tab.html ]
   E     A C  B
Ei yksikää-ää-ään


I
 
II

III


IV
G   F                     x3
 ||-----0------0--||
 ||---6--6---6--6-||
 ||-5------5------||    
 ||---------------||
 ||---------------||
 ||---------------||

G   B C C# D D# E


V
||---------------------------------------------------------------------||
||---------------------------------------------------------------------||
||------------------------------------------------------------------4--||
||-2h4-5h4-2---2----2h4-5h4-2---2----2h4-5h4-2---2----2h4-5h4-2---2----||
||-----------3---2------------3---2------------3---2------------3------||
||---------------------------------------------------------------------||


III jälleen, kaksi viimeistä "Ei yksikään"-huudahdusta:

E A C D#
E A C D# E \
Comments