Clutch - Regulator Chords & Tabs

 

Regulator Chords & Tabs

Clutch Chords & Tabs

Version: 1 Type: Tab 0 ratings
1 star 2 stars 3 stars 4 stars 5 stars
comments

Regulator Tab

   
NOTE: This song was done on a 12 string acoustic (i think)


d|0----------------------------------------------|
A|------5--3-------------------------------------|
F|------------4--2-0--2h3p0--------2-------------|
C|------------------------------5-2--------2-----|
G|-----------------------------------------------|
D|0------------------------------------------0---|


d|------------------------0---------------------------0-------|
A|---------------------5-5-----5-3----------------------------|
F|-------2-------------------------4-2-0--2h3p0------2--------|
C|2-5-2------2-----------------------------------5-2------2---|
G|------------------------------------------------------------|
D|--------------0*-----------------------------------------0--|

d|---------0----|   (leads straight to verse)
A|--------------|
F|-------2------|
C|2-5-2---------|
G|--------------|
D|--------------|

rythem verse:
[ Tab from: http://www.guitartabs.cc/tabs/c/clutch/regulator_tab.html ]
d|
A|
F|
C|2--2--2--------2--2--2--|
G|-----------2-5----------|
D|0--0---0-------0--0--0--|

lead acoustic over rythem:

d|------------------------------------------|
A|5-7--5--3-5-------------------5----5----5-|
F|---------------3-2------------------------|
C|--------------------5-2-----2----2----2---|
G|------------------------------------------|
D|------------------------------------------|

d|------------------------------|
A|-7----7----7----5----5----5---|
F|------------------------------|
C|4----4----4----2----2----2----|
G|------------------------------|
D|------------------------------|

and thats it...the rest is all lead synth and bass...but incase that one high note 
"come with me and walk along this mile" isnt synth, its a high A note.

When it goes "dream with the..." thats when that lead acoustic comes in (but i dont 
its acoustic anymore). The only part im not 100% sure of is the 2 low notes after the first 
that come to a stop.

(synthesizer follows guitar lead)

e-mail nate1617@msn.com if you've gotta bitch about something
Comments