Clutch - Four Lords Chords & Tabs

 

Four Lords Chords & Tabs

Clutch Chords & Tabs

Version: 2 Type: Tab 0 ratings
1 star 2 stars 3 stars 4 stars 5 stars
comments

Four Lords Tab

   
"Four Lords"
words and music by Clutch
transcribed by Dan Nadolny
[ Tab from: http://www.guitartabs.cc/tabs/c/clutch/four_lords_tab_ver_2.html ]
7/8 time                  4/4 time
Intro/verses: (4x)        Prechorus: (let ring)
  (A)                      (D5)      (A5)
e------------------------|---------------------|
b------------------------|---------------------|
g------------------------|---------------------|
d------------------------|-12---------7--------|
a------------------------|-12----(12)-7--------|
e-0-3-5--5-5--5-0-3-5-5--|-10----(10)-5--------|

Chorus: (4/4)

e---------------------------------------------------|
b---------------------------------------------------|
g------------5-------------------------5------------|
d-7----5-7---5-7-----------7-----------5-7---5-7----|
a-7----5-7---3-7----5-7----7--5---5-7--3-7---5-7----|
e-5----3-5-----5----3-5----5--3-0-3-5----5---3-5----|


Structure:

intro 4x
verse 8x
prechorus 1x
verse 8x
prechorus1x
chorus 2x
intro 4x
verse 8x
prechorus 1x
chorus 4x
Comments