Clutch - Elephant Riders Chords & Tabs

 

Elephant Riders Chords & Tabs

Clutch Chords & Tabs

Version: 1 Type: Tab 0 ratings
1 star 2 stars 3 stars 4 stars 5 stars
comments

Elephant Riders Tab

   
-------------------------------------------------------------------------------
			     Clutch - The Elephant Riders
-------------------------------------------------------------------------------

Tabbed by: Tyler Eibl
Email: Kornography32@hotmail.com

Tuning:EADGBe

Intro/Chorus
e|---------------------------------------------------------------------------|
B|---------------------------------------------------------------------------|
G|---------------------------------------------------------------------------|
D|-----------------------------------------5^---------------------5-6-7-12---|
A|--------5--7-5----------------5--7-5---------------5--7-5-------5-6-7-12---|
E|--0--7----------7--5--3--0--7---------7------0--7---------7-5-3-3-4-5-10---|

[ Tab from: http://www.guitartabs.cc/tabs/c/clutch/elephant_riders_tab.html ]
Verse part 1
e|---------------------------------------------------------------------------|
B|---------------------------------------------------------------------------|
G|---------------------------------------------------------------------------|
D|-------------------------------7-8--5--------------------------------------|
A|-7--10^-------7--5---------------------7-7-----5-0-5-5--7--5---------------|
E|--------7--10-------7--5-5-5-5--------------------------------7--5-5-7-3---|

Verse Part 2
e|---------------------------------------------------------------------------|
B|---------------------------------------------------------------------------|
G|---------------------------------------------------------------------------|
D|---------------------------------------------------------------------------|
A|-7--10^-------7--5----------------------7-7--5-0-5-5-7-5-------------------|
E|--------7--10-------7--5--5-5-5-5-5-7-3-------------------7-5-5-7-3--------|

Pre-Chorus  x 3          Second time
e|---------------------|-----------------------------------------------------|
B|---------------------|-----------------------------------------------------|
G|-----9-7---------9-7-|----9-7--5-7-5---------------------------------------|
D|--0--9-7---5-7-0-9-7-|-0--9-7--------7-5-0-7-7-7-7-5-5-5-5-4---------------|
A|--0--7-5-0-----0-7-5-|-0--7-5-0----------0-7-7-7-7-5-5-5-5-4---------------|
E|---------------------|---------------------5-5-5-5-3-3-3-3-2---------------|


| /  slide up
| \  slide down
| h  hammer-on
| p  pull-off
| ~  vibrato
| +  harmonic
| x  Mute note

===============================================================================
Comments