Clutch - Electric Worry Chords & Tabs

 

Clutch Chords & Tabs

Version: 1 Type: Tab 0 ratings
1 star 2 stars 3 stars 4 stars 5 stars
comments

Electric Worry Tab

ELECTRIC WORRY
by Clutch

Here's a new one from the new album "From Beale Street to Oblivion"

Standard Tuning

Opening:
---------------------------------------------------------|
---------------------------------------------------------|
---------------------------------------------------------|
-3h5--5--5----8~------10--10p8--3--5~--------------------|
---------------------------------------------------------|
---------------------------------------------------------|

---------------------------------------------------------|
---------------------------------------------------------|
---------------------------------------------------------|
--3p0--3---4--5---------------3--3p0---------------------|
---------------------------------------------------------|
--------------------6--5--3--------------6--3~-----------|
[ Tab from: http://www.guitartabs.cc/tabs/c/clutch/electric_worry_tab.html ]
---------------------------------------------------------|
---------------------------------------------------------|
---------------------------------------------------------|
--3---5-------3-------3---5------------------------------|
---------------------------------------------------------|
---------6-5------------------6----3--5--3---------------|

little lick before the heavier part:

---------------------------------------------------------|
---------------------------------------------------------|
---------17--15---------------5--3-----------------------|
----17---------------------5-----------------------------|
---------------------------------------------------------|
---------------------------------------------------------|


loud part:
Bang bang bang bang
vamonos vamonos

--------------------------------------------------------------|
---5--5--4----------------------------------------------------|
---5--5--4----------------------------------------------------|
---5--5--4------3---5-----------------------------------------|
---3--3--2------3---5-----------------------------------------|
----------------1---3-----------------------------------------|
Comments