Clutch - Brazenhead Chords & Tabs

 

Brazenhead Chords & Tabs

Clutch Chords & Tabs

Version: 1 Type: Tab 0 ratings
1 star 2 stars 3 stars 4 stars 5 stars
comments

Brazenhead Tab

#----------------------------------PLEASE NOTE---------------------------------#
#This file is the author's own work and represents their interpretation of the #
#song. You may only use this file for private study, scholarship, or research. #
#------------------------------------------------------------------------------##

   Brazenhead  Words and music by Clutch   Transcribed by Keith S. Byers (sreybk@yahoo.com)
  
    Again, you gotta dial in that fuzzy space-rock tone and it might help to switch to the neck pickup for maximum thickness.  You might also employ a wah if you have one to get your funk on.  This is another demo tune from the now renamed album "Pure Rock Fury."


   Intro:


   E-------------------------------
   B-------------------------------
   G--------------------2--(2)-----
   D--------------------2--(2)-----
   A--0---(0)--(0)------0--(0)-----
   E-------------------------------

   Main Theme riff:

   E-------------------------------------------
   B-------------------------------------------
   G-------------------------------------------
   D--5-5---------------------------5/--7--5---
   A--3-3---5--5---5-5--5---5-7-5---3/--5--3---
   E--------3--7---3-3--7---3-5-3--------------

   Tremolo pick riff:
[ Tab from: http://www.guitartabs.cc/tabs/c/clutch/brazenhead_tab.html ]
   E------------------------------------------------------------------
   B------------------------------------------------------------------
   G------------------------------------------------------------------
   D------------------------------------------------------------------
   A-----------------------------------------------15-15--------15-15-                         E*17//-----15---17//--*----5//----5/----12-12--------12-12---------

   E-------------------------------------
   B-------------------------------------
   G-------------------------------------
   D-------------------------------------
   A-------15-15------15-15----------15/-
   E-12-12-------12-12------12-12-12-----

   Funky wah bride riff:

   E----------------------------------------------------------------------------
   B--10----------10---------10-----10----------10-----------13-13-13-13-13-13--
   G--9--x-x-x-x--9--x-x-x-x-9-x-x--9--x-x-x-x--9--x-x-x-----12-12-12-12-12-12--
   D--7--x-x-x-x--7--x-x-x-x-7-x-x--7--x-x-x-x--7--x-x-x------------------------
   A--0--x-x-x-x--0--x-x-x-x-0-x-x--0--x-x-x-x--0--x-x-x------------------------
   E----------------------------------------------------------------------------

   The outro solo is just basically noodling in A Pentatonic minor.  Enjoy.
Comments