Clutch - Bottoms Up Socrates Chords & Tabs

 

Bottoms Up Socrates Chords & Tabs

Clutch Chords & Tabs

Version: 1 Type: Tab 0 ratings
1 star 2 stars 3 stars 4 stars 5 stars
comments

Bottoms Up Socrates Tab

   
---------------------------------------------------------------------------
			     Bottom's Up, Socrates - CLUTCH
---------------------------------------------------------------------------
Tabbed by: dave
Email: don't bother
[ Tab from: http://www.guitartabs.cc/tabs/c/clutch/bottoms_up_socrates_tab.html ]
Tuning:
INTRO/VERSE RIFF
e|-----------------------------------------------------------------------|
B|-----------------------------------------------------------------------|
G|--------7-9-7-----------------------------7-9-7------------7/9---------|
D|--------------7-----5-7-5-7/9-------------------7----5-7-5-------------|
A|-7-----------------------------7----7----------------------------------|
E|-----------------------------------------------------------------------|
CHORUS: "hangin on to the words of a mad man..."
e|-----------------------------------------------------------------------|
B|-----------------------------------------------------------------------|
G|------------------7-9--------------------7-9---------------------------|
D|--------5---------7-9--------7-5---------7-9---------------------------|
A|----5-7---7p5h7---5-7--10--------7p5h7---5-7--10-----------------------|
E|-0-------------------------0-------------------------------------------|

sorry, i don't know the part to the "x ray vision, eye in the sky..." part

BACK UP TO SOLO
e|---------------------------------------------------------------------------|
B|---------------------------------------------------------------------------|
G|---------------------------------------------------------------------------|
D|---------3--5--------------------------------------------------------------|
A|---1-3-5-------------------------------------------------------------------|
E|-3-------------------------------------------------------------------------|


| /  slide up
| \  slide down
| h  hammer-on
| p  pull-off
| ~  vibrato
| +  harmonic
| x  Mute note
============================================================================
Comments