Clutch - Big News Part One Chords & Tabs

 

Big News Part One Chords & Tabs

Clutch Chords & Tabs

Version: 1 Type: Tab 0 ratings
1 star 2 stars 3 stars 4 stars 5 stars
comments

Big News Part One Tab

   
e|--------------------------|------------------------------------
b|--------------------------|------------------------------------
g|--------------------------|------------------------------------
d|-----------6---6---6h8-8--|-----------6---6--------------------
a|---6h8-8-8---8---8--------|---6h8-8-8---8----------------------
e|--------------------------|-----------------6-7-8--------------

e|--------------------------|------------------------------------
b|--------------------------|------------------------------------
g|--------------------------|------------------------------------
d|-----------6---6---6h8-8--|-----------6---6--------------------
a|---6h8-8-8---8---8--------|---6h8-8-8---8---------6h8----------
e|--------------------------|-----------------6-7-8--------------
[ Tab from: http://www.guitartabs.cc/tabs/c/clutch/big_news_part_one_tab.html ]
e|--------------|--------------|--------------|--------------------|
b|--------------|--------------|--------------|--------------------|
g|-8s10-10-10-10|-8s10-10-10-10|-8s10-10-10-10|-8s10-10-10-10-10s12|
d|-8s10-10-10-10|-8s10-10-10-10|-8s10-10-10-10|-8d10-10-10-10-10s12|
a|-6s8--8--8--8-|-6s8--8--8--8-|-6s8--8--8--8-|-6s8--8--8--8--8s10-|
e|--------------|--------------|--------------|--------------------|

e|------|
b|------|
g|-13-11|
d|-13-11|
a|-11-9-|
e|------|

e|--------------------------|------------------------------------
b|--------------------------|------------------------------------
g|--------------------------|------------------------------------
d|-----------6---6---6h8-8--|-----------6---6--------------------
a|---6h8-8-8---8---8--------|---6h8-8-8---8----------------------
e|--------------------------|-----------------6-7-8--------------
rep.3x

e|--------------------------|------------------------------------
b|--------------------------|------------------------------------
g|--------------------------|------------------------------------
d|-----------6---6---6h8-8--|-----------6---6--------------------
a|---6h8-8-8---8---8--------|---6h8-8-8---8---------6h8----------
e|--------------------------|-----------------6-7-8--------------

e|----------|----------|--------|
b|----------|----------|--------|
g|---------8|---------8|--------|
d|-----6-8--|-----6-8--|-----6-8|
a|-6-8------|-6-8------|-6-8----|
e|----------|----------|--------|
rep. 4x
Comments