Clutch - American Sleep Chords & Tabs

 

American Sleep Chords & Tabs

Clutch Chords & Tabs

Version: 2 Type: Tab 0 ratings
1 star 2 stars 3 stars 4 stars 5 stars
comments

American Sleep Tab

"American Sleep"
Clutch
Pure Rock Fury
2001 - Atlantic Records
Transcribed by Dan Nadolny

Intro (after squalling feedback)
  4/4  (all palm muted) 8 times:
E--------------------------------|
B--------------------------------|
G--------------------------------|
D-2-2-2-2--3\--2-2-2-2-4\-2-2-3--|
A-2-2-2-2--3\--2-2-2-2-4\-2-2-3--|
E-0-0-0-0------0-0-0-0-2\-0-0-1--|


Verse: (4 times when vocals enter)
  11/8                               Slightly different part, 15/8
e----------------------------------|-----------------------|--------------------|
b----------------------------------|-----------------------|--------------------|
g----------------------------------|-----------------------|--------------------|
d----------------------------------|-8-/10-1010-8--10-1010-|--------------------|
a----------------------------6-----|-8-/10-1010-8--10-1010-|-----6-------6------|
e-6-/-8--8-8-6-/-8--8-8--7-6---8-7-|-6-/-8--8-8-6-/-8--8-8-|-7-6---8-7-6---8-7--|
[ Tab from: http://www.guitartabs.cc/tabs/c/clutch/american_sleep_tab_ver_2.html ]
Before 1st and 2nd verses:
2 times:  11/8                  also twice:
e-----------------------------|---11-13-13b14-13-11-13b14-13-11-11-11------------|
b-13-13-13-13p11--13b15p11----|-13------------------------------------13---------|
g-------------------------12--|--------------------------------------------------|
d-----------------------------|--------------------------------------------------|
a-----------------------------|--------------------------------------------------|
e-----------------------------|--------------------------------------------------|

chorus: 6/8 (4x)     Over solo and last verse: several times
e-------------------|-----------------------------|
b-------------------|------------8----------------|
g-------------------|------------8----------------|
d-101010-8----------|---10--8-------10--8---------|
a-101010-8----------|---------10------------------|
e--8-8-8-6----------|-8---------------------------|

The structure is easy, the final chords that segue into "PRF" are just the 2 chorus chords again.
Good luck.
Comments