Clutch - 7 Jam Chords & Tabs

 

7 Jam Chords & Tabs

Clutch Chords & Tabs

Version: 1 Type: Bass Tab 0 ratings
1 star 2 stars 3 stars 4 stars 5 stars
comments

7 Jam Bass Tab

Song Title: 7 Jam
Artist: Clutch
----------------------------------------------
[ Tab from: http://www.guitartabs.cc/tabs/c/clutch/7_jam_btab.html ]
Main riff: h=hammer-on
G-------------------------------------------------------------------
D--------5-----------5h-7--5----------------------------------------
A--5h-7-----7--5h-7-----------7-------------------------------------
E-------------------------------------------------------------------
(Sometimes, he plays this line without using hammer-ons)
Outro: (faster, and syncopated)
G-------------------------------------------------------------------
D--------5-----------5h-7--5-----------5----------------------------
A--5--7-----7--5h-7-----------7--5--7-----7--5--2--0----------------
E-----------------------------------------------------3-------------
Is there actually another Clutch fan out there looking at this?
Just asking, 'cause I don't know any.

Submitted by:  Adam Mohamed (hamid.mohamed@esannex2.es.emr.ca)
Comments