Cloud Cult - Breakfast With My Shadow Chords & Tabs

 

Breakfast With My Shadow Chords & Tabs

Cloud Cult Chords & Tabs

Version: 1 Type: Tab 0 ratings
1 star 2 stars 3 stars 4 stars 5 stars
comments

Breakfast With My Shadow Tab

A great song by a great group. Craig Minowa is an excellent songwriter.  This song is
so simple, i don't understand why you had to look up the tab. Seriously dude, I learned
it by ear in exactly 30 seconds. Anyway my name is Chase, this tab is 100% accurate, and
if you have trouble getting this song right... you should just stop playing guitar right
now. Seriously, just stop.

Band: Cloud Cult
Song: Breakfast With My Shadow

|----------------------------------------------------------------------------------|
|----------------------------------------------------------------------------------|
|----------------------------------------------------------------------------------|
|----------------9----------------9-----------9------------7------------7-------7--|
|---10---10-------10---10---------10---------5---5-------5---5-------5-------------|
|----------------------------------------------------------------------------------|
[ Tab from: http://www.guitartabs.cc/tabs/c/cloud_cult/breakfast_with_my_shadow_tab.html ]
|--------------------------------------------------------------------------------|
|--------------------------------------------------------------------------------|
|--------------------------------------------------------------------------------|
|-------------9-------------9-------9-------------------7-------------7-------7--|
|---7----7-------7----7-------7-------------5----5-------5----5-------5----------|
|--------------------------------------------------------------------------------|

|--------------------------------------------------------------------------------|
|--------------------------------------------------------------------------------|
|--------------------------------------------------------------------------------|
|-------------5-------------5-------5-------------------7-------------7-------7--|
|---3----3-------3----3-------3-------------5----5-------5----5-------5----------|
|--------------------------------------------------------------------------------|

|-------------------------------------------------------------------------------|
|-------------------------------------------------------------------------------|
|-------------------------------------------------------------------------------|
|-------------5-------------5-------5-------------------9-------------------7---|
|---3----3-------3----3-------3-------------7----7-------7----5----5---------5--|
|-------------------------------------------------------------------------------|
Comments