Closure - Look Out Below Chords & Tabs

 

Look Out Below Chords & Tabs

Closure Chords & Tabs

Version: 1 Type: Tab 0 ratings
1 star 2 stars 3 stars 4 stars 5 stars
comments

Look Out Below Tab

   
Artist:Closure
Song: Look Out Below
Tabber:Radioheadfreak
Email:kpoehlke@hotmail.com
This tab really needed to be done on here, it's a great song so i thought i had to step forward. Enjoy!!!

Intro:
eb ------------------------------------------------------------------
Bb ----------------13----13-----13-----------------------------------
Gb ----14----14------------------------14----14----12----12------12--
Db -12----12----12----12-----12-----12----12----12----12-----12------
Ab ------------------------------------------------------------------
Db ------------------------------------------------------------------

Riff 1: Guitar 2 uses a delay pedal on the bends, it sounds like
eb -----------------------------------------|------------------
Bb -3-3-3-3-3-3-3-3-------------------------|-3^4^3-----3^4^3--
Gb -2-2-2-2-2-2-2-2--3--3--3-3-3------------|------------------
Db -0-0-0-0-0-0-0-0--3--3--3-3-3--3-3-3-3-3-|------------------
Ab -0-0-0-0-0-0-0-0--1--1--1-1-1--3-3-3-3-3-|------------------
Db -0-0-0-0-0-0-0-0---------------3-3-3-3-3-|------------------

Verse:
eb ---------0~------------1-0~--|-------------------[PM-----]---------
Bb -----3-----------------------|-[PM-----]---------------------------
Gb ---2---2-----------3---------|-------------------3-3-3-3-3---------
Db -0---------------3---3-------|-0-0-0-0-0--0-0-0--3-3-3-3-3--3-3-3--
Ab ---------------1-------------|-0-0-0-0-0--0-0-0--1-1-1-1-1--3-3-3--
Db -----------------------------|-0-0-0-0-0--0-0-0-------------3-3-3--

Pre-chorus:
eb ---------------------------------------------------------------------
Bb ---------------------------------------------------------------------
Gb ---------------------------------------------------------------------
Db -7-7-7-7-7--10-10-10-10-10--5-5-5-5-5--7-7-7-7-7--10-10-10-10-10/12--
Ab -5-5-5-5-5--8--8--8--8--8---3-3-3-3-3--5-5-5-5-5--8--8--8--8--8/-10--
Db -5-5-5-5-5--8--8--8--8--8---3-3-3-3-3--5-5-5-5-5--8--8--8--8--8/-10--
[ Tab from: http://www.guitartabs.cc/tabs/c/closure/look_out_below_tab.html ]
Chorus:
eb ---------------------------------------
Bb ---------------------------------------
Gb -2-2-2--3-3-3-3-3-----------5-5-5-5-5--
Db -0-0-0--3-3-3-3-3--3-3-3-3--5-5-5-5-5--
Ab -0-0-0--1-1-1-1-1--3-3-3-3--3-3-3-3-3--
Db -0-0-0-------------3-3-3-3-------------

Bridge:
eb ---------------------------------------------
Bb ---------------------------------------------
Gb -3-3-3-3-3--7-7-7-7-7--5-5-5-5-5-------------
Db -3-3-3-3-3--7-7-7-7-7--5-5-5-5-5--5-5-5-5-5--
Ab -1-1-1-1-1--5-5-5-5-5--3-3-3-3-3--5-5-5-5-5--
Db ----------------------------------5-5-5-5-5--

eb ---------------------------------------------------------
Bb ---------------------------------------------------------
Gb -3-3-3-3-----------------------------------3-3-3-3-3--5--
Db -3-3-3-3--3-3--0-0-0--3-3--5-5-5-5-5--3-3--3-3-3-3-3--5--
Ab -1-1-1-1--3-3--0-0-0--3-3--5-5-5-5-5--3-3--1-1-1-1-1--3--
Db ----------3-3--0-0-0--3-3--5-5-5-5-5--3-3----------------

Instrumental: keep in mind this was HARD to pick up.. this works anyway
eb ------------------------------------------------------------------------
Bb ---8-8----8-10-10--8-----10--11--8--10--10h11-8h10----8-8----8-10-8-----
Gb -7-----10------------10-----------------------------7-----10--------10--
Db ------------------------------------------------------------------------
Ab ------------------------------------------------------------------------
Db ------------------------------------------------------------------------

eb --------------------------------------------------------------------------
Bb ----------------------------------13----13----13--------------------------
Gb -14/7--14/7--14/15/14---14---14-----------------14----14----12---12---12--
Db -x--x--x--x--x--x--x--12---12---12---12---12---12---12---12---12---12-----
Ab -12/5--12/5--12/13/12-----------------------------------------------------
Db --------------------------------------------------------------------------

Outro: distortion off on the last chord, with heavy reverb
eb ----------------------0~--
Bb -3~-----3~-----3~-----3~--
Gb -2~-----2~-----2~-----2~--
Db -0~-----0~-----0~-----0~--
Ab -0~-----0~-----0~-----0~--
Db -0~-----0~-----0~-----0~--

Chords: Db   Fb  Gb  A   B   Db
eb	(0)  x   x   x   x   x
Bb	(3)  x   x   x   x   x
Gb	(2)  x   x   3   5   7
Db	 0   3   5   3   5   7
Ab	 0   3   5   1   3   5
Db	 0   3   5   x   x   x
Comments