Closing Time - Semisonic Chords & Tabs

 

Semisonic Chords & Tabs

Closing Time Chords & Tabs

Version: 1 Type: Tab 0 ratings
1 star 2 stars 3 stars 4 stars 5 stars
comments

Semisonic Tab

If you think this tab is wrong...Email me @ Add964@yahoo.com or just im me on AIM or w/e my sn's ADD964
Tabbed by: Explosive07
Tuning: Standard (EADGBe)
Time Sig.: 4/4
>: louder strum
<: softer strum
v: Downstrum
^:Upstrum
Guitar 1:
  v ^ v^v v ^ v^v v ^ v^v v^v^v^v thats the strumming pattern for guitar 1&2
----------------------------------| and the > and the < are the same too
--------------><<-----------------|
------><<-7-7-777-----><<-3333333-|
--5-5-555-7-7-777-7-7-777-5555555-|
--5-5-555-5-5-555-7-7-777-5555555-|
--3-3-353---------5-5-555---------|
[ Tab from: http://www.guitartabs.cc/tabs/c/closing_time/semisonic_tab.html ]
Guitar 2:
-3-3-333-2-2-222---------00000000-|
-0-0-000-3-3-333-1-1-111-11111111-|  Repeat All Of These Throughout the song
-0-0-000-2-2-222-2-2-222-00000000-|
-0-0-000-0-0-000-2-2-222-22222222-|
-2-2-222-----------------33333333-|
-3-3-333--------------------------|

Guitar 3 (Piano)
---------------------------------|
-12--12--15--12--12--13----------|
---12--12--12--12--12------------|
---------------------------------|
---------------------------------|
---------------------------------|

Solo Repeat (x3) and and go back to what you were doing
Guitar 3:
-----------10-11-----------------|
-11--11--13-----13-11--11--------|
---------------------12----------|
---------------------------------|
---------------------------------|
---------------------------------|

Guitar Solo (Right After Piano)
Guitar Fill 1
----------------------------------|
-5-7-9-12-------------------------|
-X-X-X--X-------------------------|
-3-5-7-10-------------------------|
----------------------------------|


And That's it...this is a great song.
Comments