Clay Aiken - When You Say You Love Me Chords & Tabs

 

When You Say You Love Me Chords & Tabs

Clay Aiken Chords & Tabs

Version: 1 Type: Tab 0 ratings
1 star 2 stars 3 stars 4 stars 5 stars
comments

When You Say You Love Me Tab

   
WHEN YOU SAY YOU LOVE ME - CLAY AIKEN
-------------------------------------
Tabbed by Colin Groves


Intro:

E||-----------------|-----------------|-----------------|-----------------|
B||-----3-----3-----|-----3-----3-----|-----1-----1-----|-----3-----3-----|
G||---0-----0-----0-|---0-----0-----0-|---0-----0-----0-|---0-----0-----0-|
D||-5-----5-----5---|-4-----4-----4---|-2-----2-----2---|-4-----4-----4---|
A||-----------------|-----------------|-----------------|-----------------|
E||-----------------|-----------------|-----------------|-----------------|


Verse (play twice):

"I've been watching..."
E||-----------------|-----------------|-----------------|-----------------|
B||-----3-----3-----|-----3-----3-----|-----3-----3-----|-----3-----3-----|
G||---0-----0-----0-|---0-----0-----0-|---0-----0-----0-|---0-----0-----0-|
D||-5-----5-----5---|-4-----4-----4---|-5-----5-----5---|-4-----4-----4---|
A||-----------------|-----------------|-----------------|-----------------|
E||-----------------|-----------------|-----------------|-----------------|

E||-----------------|-----------------|-----------------|-----------------|
B||-----1-----1-----|-----3-----3-----|-----1-----1-----|-----3-----3-----|
G||---0-----0-----0-|---0-----0-----0-|---0-----0-----0-|---0-----0-----0-|
D||-2-----2-----2---|-4-----4-----4---|-2-----2-----2---|-4-----4-----4---|
A||-----------------|-----------------|-----------------|-----------------|
E||-----------------|-----------------|-----------------|-----------------|
[ Tab from: http://www.guitartabs.cc/tabs/c/clay_aiken/when_you_say_you_love_me_tab.html ]
"I know everybody.." (Each bar here counts as two)
   Cmajor            Eminor            Csus     Aminor   Dmajor
E||-----------------|-----------------|-----------------|---2-------------|
B||---1-------------|-----------------|-----------1-----|---3-------------|
G||-----------------|-----------------|-----------2-----|---2-------------|
D||---2-------------|---2-------------|---2-------2-----|-----------------|
A||---3-------------|---2-------------|---3-------------|-----------------|
E||-----------------|-----------------|-----------------|-----------------|


Chorus:

"And when you say.."
E||-----------------|-----------------|-----------------|-----------------|
B||-----3-----3-----|-----3-----3-----|-----3-----3-----|-----3-----3-----|
G||---4-----4-----4-|---2-----2-----2-|---0-----0-----0-|---2-----2-----2-|
D||-5-----5-----5---|-4-----4-----4---|-2-----2-----2---|-4-----4-----4---|
A||-----------------|-----------------|-----------------|-----------------|
E||-----------------|-----------------|-----------------|-----------------|

E||-----------------|-----------------|-----------------|-----------------|
B||-----3-----3-----|-----3-----3-----|-----3-----3-----|-----3-----3-----|
G||---0-----0-----0-|---2-----2-----2-|---0-----0-----0-|---2-----2-----2-|
D||-2-----2-----2---|-4-----4-----4---|-2-----2-----2---|-4-----4-----4---|
A||-----------------|-----------------|-----------------|-----------------|
E||-----------------|-----------------|-----------------|-----------------|


Bridge (play first half twice):

"Again and again..."
E||-----------------|-----------------|-----------------|-----------------|
B||-----1-----1-----|-----1-----1-----|-----3-----3-----|-----3-----3-----|
G||---0-----0-----0-|---0-----0-----0-|---0-----0-----0-|---0-----0-----0-|
D||-3-----3-----3---|-2-----2-----2---|-0-----0-----0---|-0-----0-----0---|
A||-----------------|-----------------|-----------------|-----------------|
E||-----------------|-----------------|-----------------|-----------------|

E||-----------------|-----------------|-----------------|-----------------|
B||-----1-----1-----|-----1-----1-----|-----3-----3-----|-----3-----3-----|
G||---0-----0-----0-|---0-----0-----0-|---2-----2-----2-|---2-----2-----2-|
D||-3-----3-----3---|-2-----2-----2---|-0-----0-----0---|-0-----0-----0---|
A||-----------------|-----------------|-----------------|-----------------|
E||-----------------|-----------------|-----------------|-----------------|
Comments