Claude Sirois - Sautes Moutons Chords & Tabs

 

Sautes Moutons Chords & Tabs

Claude Sirois Chords & Tabs

Version: 1 Type: Tab 0 ratings
1 star 2 stars 3 stars 4 stars 5 stars
comments

Sautes Moutons Tab

     Sautes moutons, arrangements pour guitare, par Claude Sirois

  Guitariste Québécois

  Guitare classique,  écrit en tablature par Steve Morin


             
|---------------------|---------------------|------------------------|
|-1p0----1p0----1p0---|--0------------------|-1p0----1p0----1p0----0-|
|-----2------2------2-|----2-0--------0-2---|-----2------2------2----|
|-2------2------2-----|---------2--2--------|-2------2------2--------|
|-0------0------0-----|---------------------|-0------0------0--------|
|---------------------|--0------0--0--------|----------------------0-|

|-----------|---------------------|-------------------|-----------------|
|-----------|-1p0----1p0----1p0---|--0----------------|-1p0---0---------|
|------0-2--|-----2------2------2-|----2-0------0-2---|-----2---2p0-2---|
|-2--2------|-2------2------2-----|--------2--2-------|-0-----0-----2---|
|-----------|-0------0------0-----|-------------------|-------------0---|
|-0--0------|---------------------|--0-----0--0-------|-1-----3---------|

|----------------|
|----------------|
|-----0-----2----|
|-2--------------| x2
|-----------0----|
|-0---3----------|
          
|-0-----0---------|-0-----0---------|-----------------|----------------|
|---1-----1---3---|---0-----0---3---|-1-----1-----3---|-0-----0--------|
|-----2-----2---2-|-----0-----0---0-|---2-----2-----2-|---0--------0-2-|
|-------2---------|-------2---------|-----2-----2-----|-----2----2-----|
|-0-----------0---|-------------2---|-0-----0-----0---|----------------|
|-----------------|-0---------------|-----------------|-0-----0--------|

|-0------0---------|-0------0----------|---------------------|
|---1------1---3---|---0------0---3----|-1p0---0-------------|
|-----2------2---2-|-----0------0---0--|-----2---2p0--2------|
|--------2---------|--------2----------|-0-----0------2------|
|-0------------0---|--------------2----|--------------0------|
|------------------|-0-----------------|-1-----3-------------|
   premiere fois       2ieme fois
|----------------|    |-------|
|----------------|    |-1--3--|
|-----0-----2----|    |-------|
|-2--------------| x2 |-------|
|-----------0----|    |-------|
|-0---3----------|    |-------|

  
|-0------------|-0------0------0-|--------------|
|---1----------|---1------1------|-3p0----------|
|-----0-----0--|-----0------0----|-----0-----0--|
|-------2------|-----------------|-------0------|
|-3-------3----|-----------------|--------------|
|--------------|-----------------|-3-------3----|

|------------------|
|-0-0-0--1-1--3-3--|
|-0-0-0--2-2--0-0--|
|-0-0-0--3-3--0-0--|
|------------------|
|-3-3-3--1----3----|

|-0-------------|--0------0------0-|-1-------------|
|---1-----------|----1------1------|---1-----------|
|-----0-----0---|------0------0----|-----2-----2---|
|-------2-------|------------------|-------3-------|
|-3-------3-----|------------------|---------3-----|
|---------------|------------------|-1-------------|

|-------------------|
|-1-1-1---3-3-3-3---|
|-2-2-2---0-0-0-0---|
|-3-3-3---0-0-0-0---|
|-------------------|
|---------3---------|
[ Tab from: http://www.guitartabs.cc/tabs/c/claude_sirois/sautes_moutons_tab.html ]
|-0------------|--0------0------0-|---------------|
|---1----------|----1------1------|--3p0----------|
|-----0-----0--|------0------0----|------1-----1--|
|-------2------|------------------|--------2------|
|-3-------3----|------------------|----------2----|
|--------------|------------------|--0------------|

|----------------|-----------------|--------------------|
|---0---1---3----|--1p0------------|---1-1-1-----3-3-3--|
|----------------|--2---2-2---2----|---0-0-0-----2-2-2--|
|-2---2---2---0--|----------2---0--|---2-2-2--0---------|
|----------------|--0--------------|-3------------------|
|----------------|-----------------|--------------------|

|----------------|-------------------|
|-1p0------------|---1-1-1----3-3-3--|
|-----2-2---2----|---0-0-0----2-2-2--|
|-2-------2---0--|---2-2-2--0--------|
|-0--------------|-3-----------------|
|----------------|-------------------|

|---------------------|---------------------|------------------------|
|-1p0----1p0----1p0---|--0------------------|-1p0----1p0----1p0----0-|
|-----2------2------2-|----2-0--------0-2---|-----2------2------2----|
|-2------2------2-----|---------2--2--------|-2------2------2--------|
|-0------0------0-----|---------------------|-0------0------0--------|
|---------------------|--0------0--0--------|----------------------0-|

|------------|---------------------|-----------------|---------------|
|------------|-1p0----1p0----1p0---|--0--------------|--1p0---0------|
|------0-2---|-----2------2------2-|----2-0------0-2-|------2---2p0--|
|-2--2-------|-2------2------2-----|--------2--2-----|--0-----0------|
|------------|-0------0------0-----|-----------------|---------------|
|-0--0-------|---------------------|--0-----0--0-----|--1-----3------|

|---------------------|-----------------------|
|-0h1p0---1-----------|--0h1p0---0------------|
|-------2---2---2---2-|--------2---2---2---2--|
|---------2-------2---|----------0-------0----| x2
|-0-----------0-------|-----------------------|
|---------------------|--1------------1-------|

|-0h1p0---0------------|-3----1----0----------|
|-------3--------------|----------------3-----|
|------------2---2---2-|---2----2----2-----2--|
|---------2--------2---|------0---------0-----| x2
|-0------------0-------|----------------------|
|----------------------|-1---------1----------|

|----------------------|---------------------|
|-0h1p0---0------------|-3----1----0---------|
|-------2----2---2---2-|---2----2----2-2-2---|
|---------2--------2---|------0--------0-0---| x2
|-0------------0-------|---------------------|
|----------------------|-1---------1---------|

|--------------------------------|
|---------3------------3---------|
|-----4-----4------4-------4-----|
|---0---0--------0---0---0---0---|
|--------------------------------|
|-3------------3-----------------|

|-------------------------------|
|---------1------------1--------|
|-----2-----2------2-------2----|
|---0---0--------0---0---0---0--|
|-------------------------------|
|-1------------1----------------|

|------------a-0----|
|-0h1p0------m-0----|
|-------2----i-2----|
|------------p-2----|
|------------p-0----|
|-------------------|



steve,,,    pompom@sympatico.ca
Comments