Claude Sirois - Gros Pierre Chords & Tabs

 

Gros Pierre Chords & Tabs

Claude Sirois Chords & Tabs

Version: 1 Type: Tab 0 ratings
1 star 2 stars 3 stars 4 stars 5 stars
comments

Gros Pierre Tab

gros pierre tab by claude sirois

  guitare classique


|-------------------------------------------------------0----|
|-5----7----5------3---5---3-----2---3---2-----0-------------|
|---6----7----6------4---6---4-----2---4---2-----1----1------|
|--------------------------------------------------2---------|
|-0------------------------------0---------------------------|
|------------------0---------------------------0-------------|

|-----------0--5--3-----2---------0-----|------0-0------0-2--|
|--5---3--2------------3---------2------|-----0--------0-----|
|-6---4---2-----------2---------2-------|----1--------1------|
|--------------------0----4----2------2-|---0--------0-------|
|--------0-----4--2-----------0------4--|--2--------2--------|
|---------------------------------------|-0--------0---------|

|-0------------------|----------0----9\-5------4-------2----|
|---3-----2----------|--5--3--2---------------3--3----3-----|
|--------2-----------|-6--4---2-----9\-6-----2-------2------|
|-------2-----4-2----|---------------------0--------0-------|
|------0----4-----0--|-------0------------------------------|
|-4-2----------------|--------------------------------------|
|
|----4----2----4----2-|-----0-0-----0-0--0---------0--5-4-----3--|
|---5----3----5----3--|----2-------2--------3-----2----------2---|
|--4----2----4----2---|---2-------2------1-------2----------2----|
|-0----0----0----0----|--2-------2--------------2----------2-----|
|---------------------|-0-------0--------------0-----------------|
|---------------------|------------------0--4--------------------|

|-0-2-4---5---5-7-9---5------2-----------------------|
|----------7------------2-----2--5--------5-5--------|
|-----------7----------------------6-----6----6------|
|-------0------------------4---------6----------6----|
|--------------------------------4-----4----4--------|
|--------------------2-------------------------------|

|-0-2-4---5--------2--0--------------------------------------|
|-----------2----3------0-0--3--2--0-----------2---3-----2---|
|----------------4----1--1--------------2-----2---2-----2----|
|-------------4--4---------------------2-----2---0-----2-----|
|----------------2--------------------0---------------0------|
|--------2------------0------2--4--0-------------------------|




|-----------0--5--3-----2---------0-----|------0-0------0-2--|
|--5---3--2------------3---------2------|-----0--------0-----|
|-6---4---2-----------2---------2-------|----1--------1------|
|--------------------0----4----2------2-|---0--------0-------|
|--------0-----4--2-----------0------4--|--2--------2--------|
|---------------------------------------|-0--------0---------|

|-0------------------|----------0----9\-5------4-------2----|
|---3-----2----------|--5--3--2---------------3--3----3-----|
|--------2-----------|-6--4---2-----9\-6-----2-------2------|
|-------2-----4-2----|---------------------0--------0-------|
|------0----4-----0--|-------0------------------------------|
|-4-2----------------|--------------------------------------|
|
|----4----2----4----2-|-----0-0-----0-0--0---------0--5-4-----3--|
|---5----3----5----3--|----2-------2--------3-----2----------2---|
|--4----2----4----2---|---2-------2------1-------2----------2----|
|-0----0----0----0----|--2-------2--------------2----------2-----|
|---------------------|-0-------0--------------0-----------------|
|---------------------|------------------0--4--------------------|
[ Tab from: http://www.guitartabs.cc/tabs/c/claude_sirois/gros_pierre_tab.html ]
|-0-2-4---5---5-7-9---5------2-----------------------|
|----------7------------2-----2--5--------5-5--------|
|-----------7----------------------6-----6----6------|
|-------0------------------4---------6----------6----|
|--------------------------------4-----4----4--------|
|--------------------2-------------------------------|

|-0-2-4---5--------2--0--------------------------------------|
|-----------2----3------0-0--3--2--0-----------2---3-----2---|
|----------------4----1--1--------------2-----2---2-----2----|
|-------------4--4---------------------2-----2---0-----2-----|
|----------------2--------------------0---------------0------|
|--------2------------0------2--4--0-------------------------|



|-5---7---9---7---5---4---5----------0---2---4---2----0-----------------|
|-----------------------------5------0-3---3-0-3---3------3-----2---2---|
|--6---7---9---7---6---5---6---6------------------------4---4-----2---2-|
|-----------------------------------------------------------------------|
|-0---------------0-------0------------------------------------0--------|
|------------------------------------0-------0--------0-----------------|

|--------0-------0--|--5---7---9---12----10----9---9-----7-----------|
|-3--4-----2---2----|--------------------------------7-----7---------|
|--4--5------2------|---6---7---9----12----11---9-----7------7-------|
|-------------------|--------------11----12----7-------9-------9-----|
|--------0----------|--0-----------------------------------------9---|
|-------------------|----------0-------------------7------7----------|

|-0---2-4-0-2-4--5---5---0---5--------3----|
|-0--3-3-3-3-3-3---2---2---2---2-----2-----|
|----------------2------------------2------|
|----------------------------------2-------|
|----------------0----------------0--------|
|-0----------------------------------------|

|-0-2-4--5-------7---9----7--------5--------|
|----------7---7---7---7----7---7----7---7--|
|------------7----------------7--------7----|
|--------0----------------0-----------------|
|-------------------------------------------|
|-------------------------------------------|

|--------------4----------------------|
|-5-------7------5-7--------5---------|
|---6---6---4--------4---4----4---4---|
|-----6----------------6--------6-----|
|-4----------------4--------4---------|
|-------------------------------------|

|-------------2----0-------------------------------------0-------0--|
|-3-------5-----3-------3----2----0----2---2----3---4------2---2----|
|---4---4---2--------1----1----1----1----2---2----4---5------2------|
|-----4-------------------------------------------------------------|
|-2------------------------------------0-----------------0----------|
|------------------0----2----4----0---------------------------------|


|-0-2-4--5-------7---9----7--------5--------|
|----------7---7---7---7----7---7----7---7--|
|------------7----------------7--------7----|
|--------0----------------0-----------------|
|-------------------------------------------|
|-------------------------------------------|

|--------------4----------------------|
|-5-------7------5-7--------5---------|
|---6---6---4--------4---4----4---4---|
|-----6----------------6--------6-----|
|-4----------------4--------4---------|
|-------------------------------------|

|-------------2----0-----------------------------------------5----------|
|-3-------5-----3-------3----2----0-----------2-----3---2------2--------|
|---4---4---2--------1----1----1----1-----2-----2-----2---3------2------|
|-----4-------------------------------------2-----2----------------2----|
|-2-------------------------------------0--------------------0-------0--|
|------------------0----2----4----0-------------------------------------|




steve,,,,,,,,             pompom@sympatico.ca
Comments