Class 3 Midemeanor - Should But Wont Chords & Tabs

 

Should But Wont Chords & Tabs

Class 3 Midemeanor Chords & Tabs

Version: 1 Type: Tab 0 ratings
1 star 2 stars 3 stars 4 stars 5 stars
comments

Should But Wont Tab

Class 3 Misdemeanor.
 Tabbed by Luke, adidas44444@hotmail.com.
  
#----------------------------------PLEASE NOTE--------------------------------#
#This file is the author's own work and represents their interpretation of the#
#song. You may only use this file for private study, scholarship, or research.#
#-----------------------------------------------------------------------------#
#-- File created with Instab - http://www.pconline.com/~smcarey/instab.html --#
#-----------------------------------------------------------------------------#

Author/Artist: Luke Lisi/Class 3 Misdemeanor
Title: Should But Won't
-|-----------------------------|
-|-----------------------------|
-|-----------------------------|
-|---------------2-2-2-2-2-2-2-|
-|-2-2-2-2-0-0-0-2-2-2-3-3-3-3-|
-|-3-3-3-3-1-1-1---------------|
 Riff 1 (Palm Mute at beginning)                                              
[ Tab from: http://www.guitartabs.cc/tabs/c/class_3_midemeanor/should_but_wont_tab.html ]
-|-3-3-3-3-7-7-7-7-0-0-0-0-5-5-5-5-|
-|-3-3-3-3-7-7-7-7-0-0-0-0-5-5-5-5-|
-|-4-4-4-4-7-7-7-7-1-1-1-1-5-5-5-5-|
-|-5-5-5-5-7-7-7-7-2-2-2-2-5-5-5-5-|
-|-5-5-5-5-5-5-5-5-2-2-2-2-3-3-3-3-|
-|-3-3-3-3-5-5-5-5-0-0-0-0-3-3-3-3-|
 Chorus                                                                       

-|-3-3-3-3-3-/-7-7-7-7-7-|
-|-3-3-3-3-3-/-7-7-7-7-7-|
-|-4-4-4-4-4-/-7-7-7-7-7-|
-|-5-5-5-5-5-/-7-7-7-7-7-|
-|-5-5-5-5-5-/-5-5-5-5-5-|
-|-3-3-3-3-3-/-5-5-5-5-5-|
 Chorus Ending                                                                

-|---------------------------------|
-|---------------------------------|
-|---------------------------------|
-|-4-4-4-4-\\-2-2-2-----------------|
-|-5-5-5-5-\\-3-3-3-2-2-2-2-3-2-3-2-|
-|-----------------3-3-3-3-3-3-3-3-|
 Ending Riff 1 (Palm Mute)                                                    

-|-7-7-7-7-\\-5-5-5-3-3-3-3-3-5-3-5-|
-|-7-7-7-7-\\-5-5-5-3-3-3-3-3-5-3-5-|
-|-7-7-7-7-\\-5-5-5-4-4-4-4-3-5-3-5-|
-|-7-7-7-7-\\-5-5-5-5-5-5-5-3-5-3-5-|
-|-5-5-5-5-\\-3-3-3-5-5-5-5-3-3-3-3-|
-|-5-5-5-5-\\-3-3-3-3-3-3-3-3-3-3-3-|
 Ending Riff 2                                                                

 
:: Ultimate Guitar Archive :: 
http://www.ultimate-guitar.com 



Comments