Clash - What I Like About You Chords & Tabs

 

What I Like About You Chords & Tabs

Clash Chords & Tabs

Version: 1 Type: Tab 0 ratings
1 star 2 stars 3 stars 4 stars 5 stars
comments

What I Like About You Tab

   
What I Like About You
This song is orginally done by "The Clash"
Submitted for u all by Fat Bunny Man
This sounds perfect by ear, But the solo is a little iffy

Intro :

e|---------------------------------|
b|-10-9-10-10-0--5-7-5---5-7-5-----|
g|-9--9-9--9--0--6-7-6---6-7-6-----|    Repeat
d|-9--9-9--9--0--7-7-7---7-7-7-----|  Four Times
a|-7--7-7--7-----------------------|
e|---------------------------------|


Then for the verses :

   E E E  A A A  D  A A A

e|-0-0-0--0-0-0--2--0-0-0-----|
b|-0-0-0--2-2-2--3--2-2-2-----|
g|-1-1-1--2-2-2--2--2-2-2-----|      Repeat throught the song
d|-2-2-2--2-2-2--0--2-2-2-----|
a|-2-2-2--0-0-0-----0-0-0-----|
e|-0-0-0----------------------|

[ Tab from: http://www.guitartabs.cc/tabs/c/clash/what_i_like_about_you_tab.html ]
Then The Solo :

   G G        D  A A A   G     A A A   A A A  D D A       D    D

e|-3-3--------2--0-0-0---3-----0-0-0---0-0-0--2-2-0---3-3-2----2-----------|
b|-3-3--------3--2-2-2---3-----2-2-2---2-2-2--3-3-2---3-3-3----3-----------|
g|-0-0---7b---2--2-2-2---0-7b--2-2-2---2-2-2--2-2-2---2-2-2----2-----------|
d|-0-0---7b---0--2-2-2---0-7b--2-2-2---2-2-2--0-0-2---0-0-0----0-----------|
a|-2-2---5b------0-0-0---2-5b--0-0-0---0-0-0------0------------------------|
e|-3-3-------------------3-------------------------------------------------|

Repeat The last "D" in the solo a couple more times to finish it

Submitted by Fat Bunny Man
Comments