Clash - The Guns Of Brixton Chords & Tabs

 

The Guns Of Brixton Chords & Tabs

Clash Chords & Tabs

Version: 2 Type: Bass Tab 0 ratings
1 star 2 stars 3 stars 4 stars 5 stars
comments

The Guns Of Brixton Bass Tab

"The Guns of Brixton" by The Clash (from the album "London Calling")
====================================================================

transcribed by Gilles Velay

Any comments, corrections or suggestions ?
Please email me at velay@suisse.far.cea.fr


    Intro
    =====
G-|-----------------||-----------------|-----------------|--------------------|
D-|---------0-------||-4-4-4-4-4---0---|-------------0---|-4-4-4-4-4---0------|
A-|-2---------------||-----------------|-2---2---2-------|--------------------|
E-|-----------------||-----------------|-----------------|--------------------|


G-|------------------|------------------|-----------------|-------------------|
D-|-------------0----|-------------0----|-------------0---|------------0------|
A-|-2---2---2--------|------------------|-2---2---2-------|-------------------|
E-|------------------|-3-3-3-3-3--------|-----------------|-3-3-3-3-3---------|


G-|------------------||
D-|-------------0----||
A-|-2---2---2--------||
E-|------------------||


    Pattern I
    =========
G-|-------------2----|-4---------------|-------------2----|-4-----------------|
D-|-4-4-4-4-4--------|-------------0---|-4-4-4-4-4--------|-------------0-----|
A-|------------------|---------2-------|------------------|---------2---------|
E-|------------------|-----------------|------------------|-------------------|

[ Tab from: http://www.guitartabs.cc/tabs/c/clash/the_guns_of_brixton_btab_ver_2.html ]
G-|------------------|-----------------|-----------------|--------------------|
D-|-------------0----|-------------0---|-------------0---|-------------0------|
A-|------------------|-2---2---2-------|-----------------|-2---2---2----------|
E-|-3-3-3-3-3--------|-----------------|-3-3-3-3-3-------|--------------------|


    Pattern II
    ==========
G-|------------------|-----------------|-----------------|--------------------|
D-|-4-4-4-4-4---0----|--------------0--|-4-4-4-4-4---0---|-------------0------|
A-|------------------|--2---2---2------|-----------------|-2---2---2----------|
E-|------------------|-----------------|-----------------|--------------------|


G-|------------------|-----------------|-----------------|--------------------|
D-|-------------0----|-------------0---|-------------0---|-------------0------|
A-|------------------|-2---2---2-------|-----------------|-2---2---2----------|
E-|-3-3-3-3-3--------|-----------------|-3-3-3-3-3-------|--------------------|


    Outro
    =====                                                         repeat ad lib
G-||------------------|-----------------|-----------------|------------------||
D-||-------------0----|-------------0---|-------------0---|-------------0----||
A-||------------------|-2---2---2-------|-----------------|-2---2---2--------||
E-||-3-3-3-3-3--------|-----------------|-3-3-3-3-3-------|------------------||

Comments