Clash - Spanish Bombs Chords & Tabs

 

Spanish Bombs Chords & Tabs

Clash Chords & Tabs

Version: 1 Type: Tab 0 ratings
1 star 2 stars 3 stars 4 stars 5 stars
comments

Spanish Bombs Tab

   
Great song and really easy if you are good at barre chords. Enjoy.

Intro:

A     F#m C#m  Bm   Dm         A       F#m C#m  Bm   Dm
---------------------1-------------------------------1----------
---------------------3-------------------------------3----------
2-----1----2---------2---------1---2---1---2---------2----------
---------------4--------------------------------4---------------
----------------------------------------------------------------
----------------------------------------------------------------


[ Tab from: http://www.guitartabs.cc/tabs/c/clash/spanish_bombs_tab.html ]
>A                 F#m  C#m  Bm
>Spanish Bombs in Andalusia
>                          Dm
>The shooting sites in the days of '39
>A                    F#m      C#m
>Oh, please leave the vendetta open
>Bm                 Dm
>Federico Lorca is dead and gone
>A                   F#m      C#m
>Bullet Holes in the cemetary walls
>Bm                    Dm
>.The black cars of the Guardia Civil
>A              F#m         C#m
>Spanish bombs on the Costa Rica
>Bm                 Dm
>I'm flying in on a DC-10 tonight
>
Chorus:
A                   F#m      C#m/E
Spanish bombs yo te quirro y finito
F#m   C#m/E      G/D 
Yo te querda  Oh ma corazon
A                   F#m      C#m/E
Spanish bombs yo te quirro y finito
F#m   C#m/E     G/D
Yo te quirro oh ma corazon

Spanish weeks in my disco casino
The freedom fighters died up on the hill
They sang the red flag, they wore th black one
But after they died it was Mockingbird Hill
Back home the buses went up in flashes
The Irish tomb was drenched in blood
Spanish bombs shatter the hotel
My senorita's nose was nipped in the bud

Chorus

The hillsides ring with,"Free the people"
Or can I hear the echoes from the days of '39?
With trenches full of poets, the ragged armies
Fixin' bayonets, to fight the other line
Spanish bombs rock the province
I'm hearing music from another time
Spanish bombs on the Costa Brava
I'm flying in on a DC-10 tonight

Chorus :add at end...
A                F#m  C#m/E F#m  C#m/E
Spanish songs in Andalusia, Mandalina
   G/D
Oh my corazon
A             F#m  C#m/E  F#m C#m/E
Spanish songs in Granada
   G/D        A   F#m   Bm7   Dm     A
Oh my corazon


F#m   C#m    Bm   C#m/E   G/D    Bm7
-2-----4------2-----4------0------2--------------------------------------
-2-----5------3-----5------0------3--------------------------------------
-2-----6------4-----6------4------2--------------------------------------
-4-----6------4-----6------5------4--------------------------------------
-4-----4------2-----4------5------2--------------------------------------
-2------------------0----------------------------------------------------
Comments