Clash - Should I Stay Or Should I Go Chords & Tabs

 

Should I Stay Or Should I Go Chords & Tabs

Clash Chords & Tabs

Version: 1 Type: Tab 0 ratings
1 star 2 stars 3 stars 4 stars 5 stars
comments

Should I Stay Or Should I Go Tab

   
Clash
Should I Stay or Should I Go
Tabbed by Dean
lyongowao@juno.com
I couldn't figure out all the spanish parts but other than that this is 100% right.

Intro
     D     G     D
e|--222---3333-------x-x-x--|
B|--333---0000---3---x-x-x--|
G|--222---0000---2---x-x-x--|
D|--------0000---0----------|
A|--------2222--------------|
E|--------3333--------------|

e|--222--3333--2--5h8--|
B|--333--0000--3-------|
G|--222--0000--2-------|
D|-------0000----------|
A|-------2222----------|
E|-------3333----------|


Verse
Part 1
e|--222--3333--2--|
B|--333--0000--3--|
G|--222--0000--2--| x2
D|-------0000-----|
A|-------2222-----|
E|-------3333-----|

Part 2
e|--333--2222--3--|
B|--000--3333--0--|
G|--000--2222--0--|
D|--000--------0--|
A|--222--------2--|
E|--333--------3--|

Part 1 x1

Part 3
       A5
e|------------|
B|------------|
G|--22222222--|
D|--22222222--|
A|--00000000--|
E|------------|

Part 1 x1

Chorus
      D      G
e|--22222--33333--|
B|--33333--00000--|
G|--22222--00000--|
D|---------00000--|
A|---------22222--|
E|---------33333--|

      A5     G
e|---------333333--|
B|---------000000--|
G|--22222--000000--|
D|--22222--000000--|
A|--00000--222222--|
E|---------333333--|

[ Tab from: http://www.guitartabs.cc/tabs/c/clash/should_i_stay_or_should_i_go_tab.html ]


Darlin you gotta let me know
should I stay or should I go
If you say that you are mine
I'll be here 'till the end of time
but you gotta let me know
should I stay or should I go

It's always tease tease tease
Your happy when I'm on my knees
One day it's fine and next it's black
so if you want me off your back
well c'mon and let me know
should I stay or should I go

chorus
Should I stay or should I go now
Should I stay or should I go now
If I go there will be trouble
and if I stay it will be double
so c'mon and let me know

this indecision's buggin me
(un decision me molesta) 
if you don't want me set me free
(si no quieres librame)
exactly whom I'm s'posed to be
(digame que tengo ser)
don'tcha know which clothes even fit me
(sabes que ropas me quedar)
c'mon and let me know
(me tienes que decir)
should I cool it or should I blow
(me debo ir o quedarme)

chorus
Should I stay or should I go now
Should I stay or should I go now
If I go there will be trouble
(si me voy habra peligro)
and if I stay it will be double
(si me quedo es double)
so you gotta let me know
should I cool it or should I blow

Should I stay or should I go now
Should I stay or should I go now
If I go there will be trouble
and if I stay it will be double
so you gotta let me know
should I stay or should I go
Comments