Clash - Police And Thieves Chords & Tabs

 

Police And Thieves Chords & Tabs

Clash Chords & Tabs

Version: 2 Type: Bass Tab 0 ratings
1 star 2 stars 3 stars 4 stars 5 stars
comments

Police And Thieves Bass Tab

this song is pretty easy but it sounds cool

part 1
G|----------------------------------------|
D|5-------5---------5-------5-------------|
A|--7-5-7----7-5-7----7-5-7----7-5-7------|
E|----------------------------------------|
[ Tab from: http://www.guitartabs.cc/tabs/c/clash/police_and_thieves_btab_ver_2.html ]
part 2
G|----------------------------------------|
D|7-5-4-------------7-5-4-----------------|
A|------7-5--7-5-7--------7-5--7-5-7------|
E|----------------------------------------|

go from part 1 right into part 2 then repeat from start of part1
it changes slightly about a minute and a half but goes back 
after about 10 seconds
Comments