Clash - Lost In The Supermarket Chords & Tabs

 

Lost In The Supermarket Chords & Tabs

Clash Chords & Tabs

Version: 1 Type: Bass Tab 0 ratings
1 star 2 stars 3 stars 4 stars 5 stars
comments

Lost In The Supermarket Bass Tab

By Alex McLean

Intro

G-/--------------------------------------------------|
D-/---9---------6---------------------9--------------|
A-/-----7---------4---------6-7-0-------7---10-11-12-|
E-/--------------------------------------------------|

Play the same again but this time play the (7),(4)and the(0) eight times


Verses
[ Tab from: http://www.guitartabs.cc/tabs/c/clash/lost_in_the_supermarket_btab.html ]
G-/---------------------------------------------------------|
D-/-------------------------------------7-----7-----7-------|
A-/----7-------7---------------------7-----7-----7--------7-|
E-/------9--7----9--7----7-7--9------------------------7----|

G-/----------------------------------------------------------|
D-/----------------------------7-------7-------7-7-----------|
A-/---4--4-4--4-2--2-2--2--------9--7----9--7------9---------|
E-/----------------------------------------------------------|

Repeat Twice

Listen to CD for Timing


Outro same as intro
Comments