Clash - London Calling Chords & Tabs

 

London Calling Chords & Tabs

Clash Chords & Tabs

Version: 2 Type: Tab 0 ratings
1 star 2 stars 3 stars 4 stars 5 stars
comments

London Calling Tab

   
Official Website:http://epicrecords.com/theclash/
Country:United Kingdom
----------------------------------------------------------------------------
			     London Calling - The Clash
----------------------------------------------------------------------------
Tabbed by:AnArChY iN dA u.K.
Email:Honk4Satan666@priest.com

Tuning:regular tuning
INTRO
e|---0-0-0---0-0-0---0-0-0---0-0-0-
B|---0-0-0---1-1-1---0-0-0---1-1-1-
G|---0-0-0---0-0-0---0-0-0---0-0-0-
D|-2-------3-------2-------3-------
A|---------------------------------
E|---------------------------------

VERSE
e|--------------------------------------------------------------------------
B|-0-0-0-0-0-0-1-1-1-1-0-0-0-0-0-0-0-0-0-0-0-0-0-0-0-1-1-1-1-0-0-0-0-1-0-0-0
G|-0-----------0---------0---------0-------0-----------0-------0-----------0
D|-2-----------3---------2---------0-------2-----------3-------2-----------0
A|--------------------------------------------------------------------------
E|--------------------------------------------------------------------------

e|-----3-------------------------------------------3------------------------
B|-0-0-0-0-0-0-0-0-1-1-1-1-0-0-0-0-0-0-0-0-0-0-0-0-0-0-0-0-0-0-0-1-1-1-1---0
G|-----0-0---------0-------0---------------0-------0-0-----------0-------2-0
D|-------2---------3-------2---------------0---------2-----------3---------2
A|--------------------------------------------------------------------------
E|--------------------------------------------------------------------------

e|-----------
B|-0-0-0-0-0-
G|-----------
D|-----------
A|-----------
E|-----------

Chorus
e|-----------------------------2------------------------2-------------------
B|-0-0-0-0-0---------3-0-0-0-0-3-0----------0-0-0-0-0-0-3-0---------0-0-0-0-
G|-0-------------------0-------2--------------0---------2-------------0-----
D|-0---------2-2-2-2---------------2-2-2-2------------------2-2-2-2---------
A|--------------------------------------------------------------------------
E|--------------------------------------------------------------------------

e|-------------------2-2-------0---
B|-----0-0-0-0-0-0---3-3-3-3-0---3-
G|-0-2-0-----------2-2-2-----------
D|-----2-------------0-0-----------
A|---------------------------------
E|---------------------------------
[ Tab from: http://www.guitartabs.cc/tabs/c/clash/london_calling_tab_ver_2.html ]
INTERLUDE
e|-------0-----0-0-0---0-0-0---0---0-0-
B|-3-3-0---3---0-0-0---1-1-1---0-1-1-1-
G|-------------0-0-0---0-0-0---0-0-0-0-
D|-----------2-------3-------2---3-----
A|-------------------------------------
E|-------------------------------------

VERSE
e|--------------------------------0---0-------------------------------------
B|-0-0-0-0-0-1-1-1-1------0-0-0-0-0---1--1-0-0-0-0-0-0-1-1-1-1-0------------
G|-0---------0--------0-2-0-------0---0--0-0-----------0--------------------
D|-2---------3------------2---------3----3-2-----------3--------------------
A|--------------------------------------------------------------------------
E|--------------------------------------------------------------------------

OUTRO
e|---------0-----------0-----------0-0-0---0-0-0---0-0-----------------0----
B|-0-0-0-0---1-1-1-1-1-1-0-0-------1-1-1---0-0-0---1-1-0-0-0-0-0-0-0-0-0----
G|-0-----------0-------0-0---0-----0-0-0---0-0-0---0-0---0-------------0----
D|-2-----------3---------2-----2-3-------2-------3-------2-------------2----
A|--------------------------------------------------------------------------
E|--------------------------------------------------------------------------

THESE ARE THE ACTUAL TABS. I GOT THEM OUT OF A TAB BOOK FOR THE CLASH. THERE ARE NO
CORRECTIONS TO BE MADE. IF YOU HAVE ANY QUESTIONS E-MAIL ME @ HONK4SATAN666@PRIEST.COM. 

LYRICS

London Calling

London calling to the faraway towns
Now that war is declared-and battle come down
London calling to the underworld
Come out of the cupboard, all you boys and girls
London calling, now don't look at us
All that phoney Beatlemania has bitten the dust
London calling, see we ain't got no swing
'Cept for the ring of that truncheon thing

CHORUS
The ice age is coming, the sun is zooming in
Engines stop running and the wheat is growing thin
A nuclear error, but I have no fear
London is drowning-and I live by the river

London calling to the imitation zone
Forget it, brother, an' go it alone
London calling upon the zombies of death
Quit holding out-and draw another breath
London calling-and I don't wanna shout
But when we were talking-I saw you nodding out
London calling, see we ain't got no highs
Except for that one with the yellowy eyes

CHORUS

Now get this
London calling, yeah, I was there, too
An' you know what they said? Well, some of it was true!
London calling at the top of the dial
After all this, won't you give me a smile?

I never felt so much a' like
Comments