Clash - London Calling Chords & Tabs

 

London Calling Chords & Tabs

Clash Chords & Tabs

Version: 8 Type: Bass Tab 0 ratings
1 star 2 stars 3 stars 4 stars 5 stars
comments

London Calling Bass Tab

   
Intro
G------------------------------|
D------------7----------------:|
A-2/7--6-7-6----2/7--6-7-6----:|x4
E--------------------------3---|


Verse
G--------------------|
D--77-----77---------|
A-7---6767---6767----|x4
E----------------33--|

 
"The ice-age is coming" part
G---------------------------------------------------------------|
D--5555-6-7777-6-5555-6-7777-6-5555-6-7777-6-5555---------------|
A-7----------------------------------------------8-7-6-5-8-7-6-5|x1
E---------------------------------------------------------------|

[ Tab from: http://www.guitartabs.cc/tabs/c/clash/london_calling_btab_ver_8.html ]
Verse
G--------------------|
D--77-----77---------|
A-7---6767---6767----|x4
E----------------33--|


"The ice-age is coming" part
G---------------------------------------------------------------|
D--5555-6-7777-6-5555-6-7777-6-5555-6-7777-6-5555---------------|
A-7----------------------------------------------8-7-6-5-8-7-6-5|x1
E---------------------------------------------------------------|


Pause


G|-------------5-|
D|---------------| x 8
A|-2/7---7-6-7---|
E|---------------|


Outro
G|-----|
D|-----|
A|-2/7-|
E|-----|
Comments