Clash - London Calling Chords & Tabs

 

London Calling Chords & Tabs

Clash Chords & Tabs

Version: 7 Type: Bass Tab 0 ratings
1 star 2 stars 3 stars 4 stars 5 stars
comments

London Calling Bass Tab

Artist:THe Clash
Title: London Calling
Tuning: EADG
Tabber: Justin van Uum

Intro/Outro
G------------5-----------------|
D-----------------------------:|
A-2/7--5-6-5----2/7--5-6-5----:|
E--------------------------3---|
[ Tab from: http://www.guitartabs.cc/tabs/c/clash/london_calling_btab_ver_7.html ]
Main riff, during vocal and the guitar solo.
G--------------------------------------------------------|
D-------2--2----------3--3------------------------------:|
A-2h3h2-------2-3-2-3-------2-3-2-3-------2-3-2-3-------:|
E-----------------------------------3--3----------3--3---|

"the iceage is coming........
G-------------------------|
D-x-2-2-2-4-5-5-5-4-2-x--:|
A------------------------:|
E-------------------------|

"I live by the river"
G--------------------------------------|
D--------------------------------------|
A-5-4-3-2--5-4-3-2-back into main riff-|
E--------------------------------------|

That's it, I know it's kind off the same than all those other tabs,
but I've made it easyilly for beginners ;)
Comments