Clash - London Calling Chords & Tabs

 

London Calling Chords & Tabs

Clash Chords & Tabs

Version: 6 Type: Bass Tab 0 ratings
1 star 2 stars 3 stars 4 stars 5 stars
comments

London Calling Bass Tab

   
The Clash - London Calling - Bass Tab



G|-------------5-|
D|---------------| x 4
A|-2/7---7-6-7---|
E|---------------|

G|--------------------------------|
D|---2--------3-------------------| x 4
A|-2----3-2-3----3-2-3----3-2-3---|
E|---------------------3--------3-|

G|-----------------------------------------------------------------------------------|
D|-----------------------------------------------------------------------------------| x 1
A|-7-7-7-9-10-10-10-9-7-7-7-9-10-10-10-9-7-7-7-9-10-10-10-9-7-7-7-7------------------|
E|------------------------------------------------------------------10-9-7-5-10-9-7-5|
[ Tab from: http://www.guitartabs.cc/tabs/c/clash/london_calling_btab_ver_6.html ]
G|--------------------------------|
D|---2--------3-------------------| x 4
A|-2----3-2-3----3-2-3----3-2-3---|
E|---------------------3--------3-|

G|-----------------------------------------------------------------------------------|
D|-----------------------------------------------------------------------------------| x 1
A|-7-7-7-9-10-10-10-9-7-7-7-9-10-10-10-9-7-7-7-9-10-10-10-9-7-7-7-7------------------|
E|------------------------------------------------------------------10-9-7-5-10-9-7-5|

Break.

G|-------------5-|
D|---------------| x 8
A|-2/7---7-6-7---|
E|---------------|

The End.

G|-----|
D|-----|
A|-2/7-|
E|-----|

Made by Johan Delaire
Comments